  0
SECTION
  2
HEADER
  9
$ACADVER
  1
AC1015
  9
$ACADMAINTVER
 70
     6
  9
$DWGCODEPAGE
  3
ANSI_1254
  9
$INSBASE
 10
0.0
 20
0.0
 30
0.0
  9
$EXTMIN
 10
0.0
 20
0.0
 30
0.0
  9
$EXTMAX
 10
279.4
 20
215.9
 30
0.0
  9
$LIMMIN
 10
0.0
 20
0.0
  9
$LIMMAX
 10
279.4
 20
215.9
  9
$ORTHOMODE
 70
     0
  9
$REGENMODE
 70
     1
  9
$FILLMODE
 70
     1
  9
$QTEXTMODE
 70
     0
  9
$MIRRTEXT
 70
     1
  9
$LTSCALE
 40
1.0
  9
$ATTMODE
 70
     1
  9
$TEXTSIZE
 40
3.5
  9
$TRACEWID
 40
1.0
  9
$TEXTSTYLE
  7
Standard
  9
$CLAYER
  8
0
  9
$CELTYPE
  6
ByLayer
  9
$CECOLOR
 62
   256
  9
$CELTSCALE
 40
1.0
  9
$DISPSILH
 70
     0
  9
$DIMSCALE
 40
1.0
  9
$DIMASZ
 40
3.5
  9
$DIMEXO
 40
1.0
  9
$DIMDLI
 40
3.75
  9
$DIMRND
 40
0.0
  9
$DIMDLE
 40
0.0
  9
$DIMEXE
 40
1.0
  9
$DIMTP
 40
0.0
  9
$DIMTM
 40
0.0
  9
$DIMTXT
 40
3.5
  9
$DIMCEN
 40
2.5
  9
$DIMTSZ
 40
0.0
  9
$DIMTOL
 70
     0
  9
$DIMLIM
 70
     0
  9
$DIMTIH
 70
     1
  9
$DIMTOH
 70
     1
  9
$DIMSE1
 70
     0
  9
$DIMSE2
 70
     0
  9
$DIMTAD
 70
     1
  9
$DIMZIN
 70
     0
  9
$DIMBLK
  1

  9
$DIMASO
 70
     1
  9
$DIMSHO
 70
     1
  9
$DIMPOST
  1

  9
$DIMAPOST
  1

  9
$DIMALT
 70
     0
  9
$DIMALTD
 70
     3
  9
$DIMALTF
 40
0.0393700787
  9
$DIMLFAC
 40
1.0
  9
$DIMTOFL
 70
     1
  9
$DIMTVP
 40
0.0
  9
$DIMTIX
 70
     0
  9
$DIMSOXD
 70
     0
  9
$DIMSAH
 70
     0
  9
$DIMBLK1
  1

  9
$DIMBLK2
  1

  9
$DIMSTYLE
  2
ISO-25
  9
$DIMCLRD
 70
     0
  9
$DIMCLRE
 70
     0
  9
$DIMCLRT
 70
     0
  9
$DIMTFAC
 40
1.0
  9
$DIMGAP
 40
1.524
  9
$DIMJUST
 70
     0
  9
$DIMSD1
 70
     0
  9
$DIMSD2
 70
     0
  9
$DIMTOLJ
 70
     0
  9
$DIMTZIN
 70
     0
  9
$DIMALTZ
 70
     0
  9
$DIMALTTZ
 70
     0
  9
$DIMUPT
 70
     0
  9
$DIMDEC
 70
     2
  9
$DIMTDEC
 70
     2
  9
$DIMALTU
 70
     2
  9
$DIMALTTD
 70
     3
  9
$DIMTXSTY
  7
Standard
  9
$DIMAUNIT
 70
     0
  9
$DIMADEC
 70
     2
  9
$DIMALTRND
 40
0.0
  9
$DIMAZIN
 70
     0
  9
$DIMDSEP
 70
    44
  9
$DIMATFIT
 70
     3
  9
$DIMFRAC
 70
     0
  9
$DIMLDRBLK
  1

  9
$DIMLUNIT
 70
     2
  9
$DIMLWD
 70
    -2
  9
$DIMLWE
 70
    -2
  9
$DIMTMOVE
 70
     0
  9
$LUNITS
 70
     2
  9
$LUPREC
 70
     2
  9
$SKETCHINC
 40
1.0
  9
$FILLETRAD
 40
10.0
  9
$AUNITS
 70
     0
  9
$AUPREC
 70
     2
  9
$MENU
  1
.
  9
$ELEVATION
 40
0.0
  9
$PELEVATION
 40
0.0
  9
$THICKNESS
 40
0.0
  9
$LIMCHECK
 70
     0
  9
$CHAMFERA
 40
0.0
  9
$CHAMFERB
 40
0.0
  9
$CHAMFERC
 40
0.0
  9
$CHAMFERD
 40
0.0
  9
$SKPOLY
 70
     0
  9
$TDCREATE
 40
2459741.607869896
  9
$TDUCREATE
 40
2459741.482869896
  9
$TDUPDATE
 40
2459741.607870069
  9
$TDUUPDATE
 40
2459741.482870069
  9
$TDINDWG
 40
0.0000000116
  9
$TDUSRTIMER
 40
0.0000000116
  9
$USRTIMER
 70
     1
  9
$ANGBASE
 50
0.0
  9
$ANGDIR
 70
     0
  9
$PDMODE
 70
     0
  9
$PDSIZE
 40
-1.0
  9
$PLINEWID
 40
0.0
  9
$SPLFRAME
 70
     0
  9
$SPLINETYPE
 70
     6
  9
$SPLINESEGS
 70
     8
  9
$HANDSEED
  5
105
  9
$SURFTAB1
 70
     6
  9
$SURFTAB2
 70
     6
  9
$SURFTYPE
 70
     6
  9
$SURFU
 70
     6
  9
$SURFV
 70
     6
  9
$UCSBASE
  2

  9
$UCSNAME
  2

  9
$UCSORG
 10
0.0
 20
0.0
 30
0.0
  9
$UCSXDIR
 10
1.0
 20
0.0
 30
0.0
  9
$UCSYDIR
 10
0.0
 20
1.0
 30
0.0
  9
$UCSORTHOREF
  2

  9
$UCSORTHOVIEW
 70
     0
  9
$UCSORGTOP
 10
0.0
 20
0.0
 30
0.0
  9
$UCSORGBOTTOM
 10
0.0
 20
0.0
 30
0.0
  9
$UCSORGLEFT
 10
0.0
 20
0.0
 30
0.0
  9
$UCSORGRIGHT
 10
0.0
 20
0.0
 30
0.0
  9
$UCSORGFRONT
 10
0.0
 20
0.0
 30
0.0
  9
$UCSORGBACK
 10
0.0
 20
0.0
 30
0.0
  9
$PUCSBASE
  2

  9
$PUCSNAME
  2

  9
$PUCSORG
 10
0.0
 20
0.0
 30
0.0
  9
$PUCSXDIR
 10
1.0
 20
0.0
 30
0.0
  9
$PUCSYDIR
 10
0.0
 20
1.0
 30
0.0
  9
$PUCSORTHOREF
  2

  9
$PUCSORTHOVIEW
 70
     0
  9
$PUCSORGTOP
 10
0.0
 20
0.0
 30
0.0
  9
$PUCSORGBOTTOM
 10
0.0
 20
0.0
 30
0.0
  9
$PUCSORGLEFT
 10
0.0
 20
0.0
 30
0.0
  9
$PUCSORGRIGHT
 10
0.0
 20
0.0
 30
0.0
  9
$PUCSORGFRONT
 10
0.0
 20
0.0
 30
0.0
  9
$PUCSORGBACK
 10
0.0
 20
0.0
 30
0.0
  9
$USERI1
 70
     0
  9
$USERI2
 70
     0
  9
$USERI3
 70
     0
  9
$USERI4
 70
     0
  9
$USERI5
 70
     0
  9
$USERR1
 40
0.0
  9
$USERR2
 40
0.0
  9
$USERR3
 40
0.0
  9
$USERR4
 40
0.0
  9
$USERR5
 40
0.0
  9
$WORLDVIEW
 70
     1
  9
$SHADEDGE
 70
     3
  9
$SHADEDIF
 70
    70
  9
$TILEMODE
 70
     1
  9
$MAXACTVP
 70
    64
  9
$PINSBASE
 10
0.0
 20
0.0
 30
0.0
  9
$PLIMCHECK
 70
     0
  9
$PEXTMIN
 10
1.0000000000E+20
 20
1.0000000000E+20
 30
1.0000000000E+20
  9
$PEXTMAX
 10
-1.0000000000E+20
 20
-1.0000000000E+20
 30
-1.0000000000E+20
  9
$PLIMMIN
 10
0.0
 20
0.0
  9
$PLIMMAX
 10
420.0
 20
297.0
  9
$UNITMODE
 70
     0
  9
$VISRETAIN
 70
     1
  9
$PLINEGEN
 70
     0
  9
$PSLTSCALE
 70
     1
  9
$TREEDEPTH
 70
  3020
  9
$CMLSTYLE
  2
Standard
  9
$CMLJUST
 70
     0
  9
$CMLSCALE
 40
20.0
  9
$PROXYGRAPHICS
 70
     1
  9
$MEASUREMENT
 70
     1
  9
$CELWEIGHT
370
    -1
  9
$ENDCAPS
280
     0
  9
$JOINSTYLE
280
     0
  9
$LWDISPLAY
290
     1
  9
$INSUNITS
 70
     4
  9
$HYPERLINKBASE
  1

  9
$STYLESHEET
  1

  9
$XEDIT
290
     1
  9
$CEPSNTYPE
380
     0
  9
$PSTYLEMODE
290
     1
  9
$FINGERPRINTGUID
  2
{c174480c-6cef-44e1-86c2-0db2fb95b573}
  9
$VERSIONGUID
  2
{FAEB1C32-E019-11D5-929B-00C0DF256EC4}
  9
$EXTNAMES
290
     1
  9
$PSVPSCALE
 40
0.0
  9
$OLESTARTUP
290
     0
  0
ENDSEC
  0
SECTION
  2
CLASSES
  0
CLASS
  1
ACDBDICTIONARYWDFLT
  2
AcDbDictionaryWithDefault
  3
ObjectDBX Classes
 90
        0
280
     0
281
     0
  0
CLASS
  1
VISUALSTYLE
  2
AcDbVisualStyle
  3
ObjectDBX Classes
 90
     4095
280
     0
281
     0
  0
CLASS
  1
MATERIAL
  2
AcDbMaterial
  3
ObjectDBX Classes
 90
     1153
280
     0
281
     0
  0
CLASS
  1
SCALE
  2
AcDbScale
  3
ObjectDBX Classes
 90
     1153
280
     0
281
     0
  0
CLASS
  1
TABLESTYLE
  2
AcDbTableStyle
  3
ObjectDBX Classes
 90
     4095
280
     0
281
     0
  0
CLASS
  1
MLEADERSTYLE
  2
AcDbMLeaderStyle
  3
ACDB_MLEADERSTYLE_CLASS
 90
     4095
280
     0
281
     0
  0
CLASS
  1
SUN
  2
AcDbSun
  3
SCENEOE
 90
     1153
280
     0
281
     0
  0
CLASS
  1
ACDBPLACEHOLDER
  2
AcDbPlaceHolder
  3
ObjectDBX Classes
 90
        0
280
     0
281
     0
  0
CLASS
  1
LAYOUT
  2
AcDbLayout
  3
ObjectDBX Classes
 90
        0
280
     0
281
     0
  0
ENDSEC
  0
SECTION
  2
TABLES
  0
TABLE
  2
VPORT
  5
8
330
0
100
AcDbSymbolTable
 70
     1
  0
VPORT
  5
29
330
8
100
AcDbSymbolTableRecord
100
AcDbViewportTableRecord
  2
*Active
 70
     0
 10
0.0
 20
0.0
 11
1.0
 21
1.0
 12
139.7
 22
107.95
 13
0.0
 23
0.0
 14
10.0
 24
10.0
 15
10.0
 25
10.0
 16
0.0
 26
0.0
 36
1.0
 17
0.0
 27
0.0
 37
0.0
 40
215.9
 41
1.2941176471
 42
50.0
 43
0.0
 44
0.0
 50
0.0
 51
0.0
 71
     0
 72
  2000
 73
     1
 74
     3
 75
     0
 76
     0
 77
     0
 78
     0
281
     0
 65
     1
110
0.0
120
0.0
130
0.0
111
1.0
121
0.0
131
0.0
112
0.0
122
1.0
132
0.0
 79
     0
146
0.0
  0
ENDTAB
  0
TABLE
  2
LTYPE
  5
5
330
0
100
AcDbSymbolTable
 70
     6
  0
LTYPE
  5
14
330
5
100
AcDbSymbolTableRecord
100
AcDbLinetypeTableRecord
  2
ByBlock
 70
     0
  3

 72
    65
 73
     0
 40
0.0
  0
LTYPE
  5
15
330
5
100
AcDbSymbolTableRecord
100
AcDbLinetypeTableRecord
  2
ByLayer
 70
     0
  3

 72
    65
 73
     0
 40
0.0
  0
LTYPE
  5
16
330
5
100
AcDbSymbolTableRecord
100
AcDbLinetypeTableRecord
  2
Continuous
 70
     0
  3
Solid line
 72
    65
 73
     0
 40
0.0
  0
LTYPE
  5
6E
330
5
100
AcDbSymbolTableRecord
100
AcDbLinetypeTableRecord
  2
HIDDEN
 70
     0
  3
Hidden __ __ __ __ __ __ __ __ __ __ __ __ __ __
 72
    65
 73
     2
 40
1.905
 49
1.27
 74
     0
 49
-0.635
 74
     0
  0
LTYPE
  5
6F
330
5
100
AcDbSymbolTableRecord
100
AcDbLinetypeTableRecord
  2
PHANTOM
 70
     0
  3
Phantom ______  __  __  ______  __  __  ______
 72
    65
 73
     6
 40
12.7
 49
6.35
 74
     0
 49
-1.27
 74
     0
 49
1.27
 74
     0
 49
-1.27
 74
     0
 49
1.27
 74
     0
 49
-1.27
 74
     0
  0
LTYPE
  5
70
330
5
100
AcDbSymbolTableRecord
100
AcDbLinetypeTableRecord
  2
CENTER
 70
     0
  3
Center ____ _ ____ _ ____ _ ____ _ ____ _ ____
 72
    65
 73
     4
 40
10.16
 49
6.35
 74
     0
 49
-1.27
 74
     0
 49
1.27
 74
     0
 49
-1.27
 74
     0
  0
LTYPE
  5
71
330
5
100
AcDbSymbolTableRecord
100
AcDbLinetypeTableRecord
  2
CENTERX2
 70
     0
  3
Center (2x) ________  __  ________  __  _____
 72
    65
 73
     4
 40
20.32
 49
12.7
 74
     0
 49
-2.54
 74
     0
 49
2.54
 74
     0
 49
-2.54
 74
     0
  0
LTYPE
  5
72
330
5
100
AcDbSymbolTableRecord
100
AcDbLinetypeTableRecord
  2
DOT2
 70
     0
  3
Dot (.5x) ........................................
 72
    65
 73
     2
 40
0.635
 49
0.0
 74
     0
 49
-0.635
 74
     0
  0
ENDTAB
  0
TABLE
  2
LAYER
  5
2
330
0
100
AcDbSymbolTable
 70
    17
  0
LAYER
  5
10
330
2
100
AcDbSymbolTableRecord
100
AcDbLayerTableRecord
  2
0
 70
     0
 62
     7
  6
Continuous
370
    -3
390
F
  0
LAYER
  5
73
330
2
100
AcDbSymbolTableRecord
100
AcDbLayerTableRecord
  2
FORMAT
 70
     0
 62
     7
  6
Continuous
370
    -3
390
F
  0
LAYER
  5
74
330
2
100
AcDbSymbolTableRecord
100
AcDbLayerTableRecord
  2
YARDIMCI_GEOMETRI
 70
     0
 62
    -6
  6
Continuous
290
     0
370
    -3
390
F
  0
LAYER
  5
75
330
2
100
AcDbSymbolTableRecord
100
AcDbLayerTableRecord
  2
SAYFA_CERCEVESI
 70
     0
 62
     7
  6
Continuous
370
    25
390
F
  0
LAYER
  5
76
330
2
100
AcDbSymbolTableRecord
100
AcDbLayerTableRecord
  2
ANTET
 70
     0
 62
     7
  6
Continuous
370
    -3
390
F
  0
LAYER
  5
77
330
2
100
AcDbSymbolTableRecord
100
AcDbLayerTableRecord
  2
OLCU
 70
     0
 62
   150
  6
Continuous
370
    -3
390
F
  0
LAYER
  5
78
330
2
100
AcDbSymbolTableRecord
100
AcDbLayerTableRecord
  2
METIN
 70
     0
 62
    96
  6
Continuous
370
    -3
390
F
  0
LAYER
  5
79
330
2
100
AcDbSymbolTableRecord
100
AcDbLayerTableRecord
  2
BALON
 70
     0
 62
     5
  6
Continuous
370
    -3
390
F
  0
LAYER
  5
7A
330
2
100
AcDbSymbolTableRecord
100
AcDbLayerTableRecord
  2
VURGU
 70
     0
 62
     7
  6
Continuous
370
    -3
390
F
  0
LAYER
  5
7B
330
2
100
AcDbSymbolTableRecord
100
AcDbLayerTableRecord
  2
SILIK
 70
     0
 62
     7
  6
Continuous
370
    -3
390
F
  0
LAYER
  5
7C
330
2
100
AcDbSymbolTableRecord
100
AcDbLayerTableRecord
  2
MODEL
 70
     0
 62
     7
  6
Continuous
370
    -3
390
F
  0
LAYER
  5
7D
330
2
100
AcDbSymbolTableRecord
100
AcDbLayerTableRecord
  2
DETAYLANDıRMA
 70
     0
 62
   190
  6
Continuous
370
    -3
390
F
  0
LAYER
  5
7E
330
2
100
AcDbSymbolTableRecord
100
AcDbLayerTableRecord
  2
TOLERANS
 70
     0
 62
   230
  6
Continuous
370
    -3
390
F
  0
LAYER
  5
7F
330
2
100
AcDbSymbolTableRecord
100
AcDbLayerTableRecord
  2
MERKEZ_CIZGILERI
 70
     0
 62
    30
  6
Continuous
370
    -3
390
F
  0
LAYER
  5
80
330
2
100
AcDbSymbolTableRecord
100
AcDbLayerTableRecord
  2
KESIT-DETAY_CIZGILERI
 70
     0
 62
     7
  6
Continuous
370
    -3
390
F
  0
LAYER
  5
81
330
2
100
AcDbSymbolTableRecord
100
AcDbLayerTableRecord
  2
\U+041E\U+0421\U+0415\U+0412\U+042B\U+0415
 70
     0
 62
     7
  6
Continuous
370
    -3
390
F
  0
LAYER
  5
82
330
2
100
AcDbSymbolTableRecord
100
AcDbLayerTableRecord
  2
\U+0412\U+041E\U+0414\U+042F\U+041D\U+042B\U+0415_\U+0417\U+041D\U+0410\U+041A\U+0418
 70
     0
 62
    11
  6
Continuous
370
    -3
390
F
  0
ENDTAB
  0
TABLE
  2
STYLE
  5
3
330
0
100
AcDbSymbolTable
 70
     1
  0
STYLE
  5
11
330
3
100
AcDbSymbolTableRecord
100
AcDbTextStyleTableRecord
  2
Standard
 70
     0
 40
0.0
 41
1.0
 50
0.0
 71
     0
 42
3.5
  3
txt
  4

  0
ENDTAB
  0
TABLE
  2
VIEW
  5
6
330
0
100
AcDbSymbolTable
 70
     0
  0
ENDTAB
  0
TABLE
  2
UCS
  5
7
330
0
100
AcDbSymbolTable
 70
     0
  0
ENDTAB
  0
TABLE
  2
APPID
  5
9
330
0
100
AcDbSymbolTable
 70
     1
  0
APPID
  5
12
330
9
100
AcDbSymbolTableRecord
100
AcDbRegAppTableRecord
  2
ACAD
 70
     0
  0
ENDTAB
  0
TABLE
  2
DIMSTYLE
  5
A
330
0
100
AcDbSymbolTable
 70
     1
100
AcDbDimStyleTable
  0
DIMSTYLE
105
27
330
A
100
AcDbSymbolTableRecord
100
AcDbDimStyleTableRecord
  2
ISO-25
 70
     0
 41
2.5
 42
0.625
 43
3.75
 44
1.25
 73
     0
 74
     0
 77
     1
 78
     8
140
2.5
141
2.5
143
0.0393700787
147
0.625
171
     3
172
     1
178
     0
271
     2
272
     2
274
     3
278
    44
283
     0
284
     8
340
11
  0
ENDTAB
  0
TABLE
  2
BLOCK_RECORD
  5
1
330
0
100
AcDbSymbolTable
 70
     5
  0
BLOCK_RECORD
  5
1F
330
1
100
AcDbSymbolTableRecord
100
AcDbBlockTableRecord
  2
*Model_Space
340
22
  0
BLOCK_RECORD
  5
1B
330
1
100
AcDbSymbolTableRecord
100
AcDbBlockTableRecord
  2
*Paper_Space
340
1E
  0
BLOCK_RECORD
  5
23
330
1
100
AcDbSymbolTableRecord
100
AcDbBlockTableRecord
  2
*Paper_Space0
340
26
  0
BLOCK_RECORD
  5
8C
330
1
100
AcDbSymbolTableRecord
100
AcDbBlockTableRecord
  2
SW_CENTERMARKSYMBOL_0
340
0
102
{BLKREFS
331
97
102
}
  0
BLOCK_RECORD
  5
AA
330
1
100
AcDbSymbolTableRecord
100
AcDbBlockTableRecord
  2
SW_CENTERMARKSYMBOL_1
340
0
102
{BLKREFS
331
B5
102
}
  0
BLOCK_RECORD
  5
DA
330
1
100
AcDbSymbolTableRecord
100
AcDbBlockTableRecord
  2
SW_CENTERMARKSYMBOL_2
340
0
102
{BLKREFS
331
E5
102
}
  0
BLOCK_RECORD
  5
E6
330
1
100
AcDbSymbolTableRecord
100
AcDbBlockTableRecord
  2
SW_CENTERMARKSYMBOL_3
340
0
102
{BLKREFS
331
F1
102
}
  0
ENDTAB
  0
ENDSEC
  0
SECTION
  2
BLOCKS
  0
BLOCK
  5
20
330
1F
100
AcDbEntity
  8
0
100
AcDbBlockBegin
  2
*Model_Space
 70
     0
 10
0.0
 20
0.0
 30
0.0
  3
*Model_Space
  1

  0
ENDBLK
  5
21
330
1F
100
AcDbEntity
  8
0
100
AcDbBlockEnd
  0
BLOCK
  5
1C
330
1B
100
AcDbEntity
 67
     1
  8
0
100
AcDbBlockBegin
  2
*Paper_Space
 70
     0
 10
0.0
 20
0.0
 30
0.0
  3
*Paper_Space
  1

  0
ENDBLK
  5
1D
330
1B
100
AcDbEntity
 67
     1
  8
0
100
AcDbBlockEnd
  0
BLOCK
  5
24
330
23
100
AcDbEntity
  8
0
100
AcDbBlockBegin
  2
*Paper_Space0
 70
     0
 10
0.0
 20
0.0
 30
0.0
  3
*Paper_Space0
  1

  0
ENDBLK
  5
25
330
23
100
AcDbEntity
  8
0
100
AcDbBlockEnd
  0
BLOCK
  5
8D
330
8C
100
AcDbEntity
  8
0
100
AcDbBlockBegin
  2
SW_CENTERMARKSYMBOL_0
 70
     0
 10
0.0
 20
0.0
 30
0.0
  3
SW_CENTERMARKSYMBOL_0
  1

  0
LINE
  5
8F
330
8C
100
AcDbEntity
  8
FORMAT
 62
     0
100
AcDbLine
 10
0.0
 20
0.0
 30
0.0
 11
0.0
 21
2.5
 31
0.0
  0
LINE
  5
90
330
8C
100
AcDbEntity
  8
FORMAT
 62
     0
100
AcDbLine
 10
0.0
 20
0.0
 30
0.0
 11
-2.5
 21
0.0
 31
0.0
  0
LINE
  5
91
330
8C
100
AcDbEntity
  8
FORMAT
 62
     0
100
AcDbLine
 10
0.0
 20
0.0
 30
0.0
 11
0.0
 21
-2.5
 31
0.0
  0
LINE
  5
92
330
8C
100
AcDbEntity
  8
FORMAT
 62
     0
100
AcDbLine
 10
0.0
 20
0.0
 30
0.0
 11
2.5
 21
0.0
 31
0.0
  0
LINE
  5
93
330
8C
100
AcDbEntity
  8
FORMAT
 62
     0
100
AcDbLine
 10
0.0
 20
5.0
 30
0.0
 11
0.0
 21
28.5
 31
0.0
  0
LINE
  5
94
330
8C
100
AcDbEntity
  8
FORMAT
 62
     0
100
AcDbLine
 10
-5.0
 20
0.0
 30
0.0
 11
-28.5
 21
0.0
 31
0.0
  0
LINE
  5
95
330
8C
100
AcDbEntity
  8
FORMAT
 62
     0
100
AcDbLine
 10
0.0
 20
-5.0
 30
0.0
 11
0.0
 21
-28.5
 31
0.0
  0
LINE
  5
96
330
8C
100
AcDbEntity
  8
FORMAT
 62
     0
100
AcDbLine
 10
5.0
 20
0.0
 30
0.0
 11
28.5
 21
0.0
 31
0.0
  0
ENDBLK
  5
8E
330
8C
100
AcDbEntity
  8
0
100
AcDbBlockEnd
  0
BLOCK
  5
AB
330
AA
100
AcDbEntity
  8
0
100
AcDbBlockBegin
  2
SW_CENTERMARKSYMBOL_1
 70
     0
 10
0.0
 20
0.0
 30
0.0
  3
SW_CENTERMARKSYMBOL_1
  1

  0
LINE
  5
AD
330
AA
100
AcDbEntity
  8
FORMAT
 62
     0
100
AcDbLine
 10
0.0
 20
0.0
 30
0.0
 11
0.0
 21
2.5
 31
0.0
  0
LINE
  5
AE
330
AA
100
AcDbEntity
  8
FORMAT
 62
     0
100
AcDbLine
 10
0.0
 20
0.0
 30
0.0
 11
-2.5
 21
0.0
 31
0.0
  0
LINE
  5
AF
330
AA
100
AcDbEntity
  8
FORMAT
 62
     0
100
AcDbLine
 10
0.0
 20
0.0
 30
0.0
 11
0.0
 21
-2.5
 31
0.0
  0
LINE
  5
B0
330
AA
100
AcDbEntity
  8
FORMAT
 62
     0
100
AcDbLine
 10
0.0
 20
0.0
 30
0.0
 11
2.5
 21
0.0
 31
0.0
  0
LINE
  5
B1
330
AA
100
AcDbEntity
  8
FORMAT
 62
     0
100
AcDbLine
 10
0.0
 20
5.0
 30
0.0
 11
0.0
 21
22.5
 31
0.0
  0
LINE
  5
B2
330
AA
100
AcDbEntity
  8
FORMAT
 62
     0
100
AcDbLine
 10
-5.0
 20
0.0
 30
0.0
 11
-22.5
 21
0.0
 31
0.0
  0
LINE
  5
B3
330
AA
100
AcDbEntity
  8
FORMAT
 62
     0
100
AcDbLine
 10
0.0
 20
-5.0
 30
0.0
 11
0.0
 21
-22.5
 31
0.0
  0
LINE
  5
B4
330
AA
100
AcDbEntity
  8
FORMAT
 62
     0
100
AcDbLine
 10
5.0
 20
0.0
 30
0.0
 11
22.5
 21
0.0
 31
0.0
  0
ENDBLK
  5
AC
330
AA
100
AcDbEntity
  8
0
100
AcDbBlockEnd
  0
BLOCK
  5
DB
330
DA
100
AcDbEntity
  8
0
100
AcDbBlockBegin
  2
SW_CENTERMARKSYMBOL_2
 70
     0
 10
0.0
 20
0.0
 30
0.0
  3
SW_CENTERMARKSYMBOL_2
  1

  0
LINE
  5
DD
330
DA
100
AcDbEntity
  8
FORMAT
 62
     0
100
AcDbLine
 10
0.0
 20
0.0
 30
0.0
 11
0.0
 21
2.5
 31
0.0
  0
LINE
  5
DE
330
DA
100
AcDbEntity
  8
FORMAT
 62
     0
100
AcDbLine
 10
0.0
 20
0.0
 30
0.0
 11
-2.5
 21
0.0
 31
0.0
  0
LINE
  5
DF
330
DA
100
AcDbEntity
  8
FORMAT
 62
     0
100
AcDbLine
 10
0.0
 20
0.0
 30
0.0
 11
0.0
 21
-2.5
 31
0.0
  0
LINE
  5
E0
330
DA
100
AcDbEntity
  8
FORMAT
 62
     0
100
AcDbLine
 10
0.0
 20
0.0
 30
0.0
 11
2.5
 21
0.0
 31
0.0
  0
LINE
  5
E1
330
DA
100
AcDbEntity
  8
FORMAT
 62
     0
100
AcDbLine
 10
0.0
 20
5.0
 30
0.0
 11
0.0
 21
9.5
 31
0.0
  0
LINE
  5
E2
330
DA
100
AcDbEntity
  8
FORMAT
 62
     0
100
AcDbLine
 10
-5.0
 20
0.0
 30
0.0
 11
-9.5
 21
0.0
 31
0.0
  0
LINE
  5
E3
330
DA
100
AcDbEntity
  8
FORMAT
 62
     0
100
AcDbLine
 10
0.0
 20
-5.0
 30
0.0
 11
0.0
 21
-9.5
 31
0.0
  0
LINE
  5
E4
330
DA
100
AcDbEntity
  8
FORMAT
 62
     0
100
AcDbLine
 10
5.0
 20
0.0
 30
0.0
 11
9.5
 21
0.0
 31
0.0
  0
ENDBLK
  5
DC
330
DA
100
AcDbEntity
  8
0
100
AcDbBlockEnd
  0
BLOCK
  5
E7
330
E6
100
AcDbEntity
  8
0
100
AcDbBlockBegin
  2
SW_CENTERMARKSYMBOL_3
 70
     0
 10
0.0
 20
0.0
 30
0.0
  3
SW_CENTERMARKSYMBOL_3
  1

  0
LINE
  5
E9
330
E6
100
AcDbEntity
  8
FORMAT
 62
     0
100
AcDbLine
 10
0.0
 20
0.0
 30
0.0
 11
0.0
 21
2.5
 31
0.0
  0
LINE
  5
EA
330
E6
100
AcDbEntity
  8
FORMAT
 62
     0
100
AcDbLine
 10
0.0
 20
0.0
 30
0.0
 11
-2.5
 21
0.0
 31
0.0
  0
LINE
  5
EB
330
E6
100
AcDbEntity
  8
FORMAT
 62
     0
100
AcDbLine
 10
0.0
 20
0.0
 30
0.0
 11
0.0
 21
-2.5
 31
0.0
  0
LINE
  5
EC
330
E6
100
AcDbEntity
  8
FORMAT
 62
     0
100
AcDbLine
 10
0.0
 20
0.0
 30
0.0
 11
2.5
 21
0.0
 31
0.0
  0
LINE
  5
ED
330
E6
100
AcDbEntity
  8
FORMAT
 62
     0
100
AcDbLine
 10
0.0
 20
5.0
 30
0.0
 11
0.0
 21
9.5
 31
0.0
  0
LINE
  5
EE
330
E6
100
AcDbEntity
  8
FORMAT
 62
     0
100
AcDbLine
 10
-5.0
 20
0.0
 30
0.0
 11
-9.5
 21
0.0
 31
0.0
  0
LINE
  5
EF
330
E6
100
AcDbEntity
  8
FORMAT
 62
     0
100
AcDbLine
 10
0.0
 20
-5.0
 30
0.0
 11
0.0
 21
-9.5
 31
0.0
  0
LINE
  5
F0
330
E6
100
AcDbEntity
  8
FORMAT
 62
     0
100
AcDbLine
 10
5.0
 20
0.0
 30
0.0
 11
9.5
 21
0.0
 31
0.0
  0
ENDBLK
  5
E8
330
E6
100
AcDbEntity
  8
0
100
AcDbBlockEnd
  0
ENDSEC
  0
SECTION
  2
ENTITIES
  0
LINE
  5
83
330
1F
100
AcDbEntity
  8
0
  6
Continuous
 62
     7
370
    25
100
AcDbLine
 10
121.3295369748
 20
136.5782793929
 30
0.0
 11
121.3295369748
 21
178.5314365546
 31
0.0
  0
LINE
  5
84
330
1F
100
AcDbEntity
  8
0
  6
Continuous
 62
     7
370
    25
100
AcDbLine
 10
107.3295369748
 20
178.5314365546
 30
0.0
 11
107.3295369748
 21
136.5767483795
 31
0.0
  0
LINE
  5
85
330
1F
100
AcDbEntity
  8
0
  6
Continuous
 62
     7
370
    25
100
AcDbLine
 10
130.9524431352
 20
91.5314365546
 30
0.0
 11
205.3295369748
 21
91.5314365546
 31
0.0
  0
LINE
  5
86
330
1F
100
AcDbEntity
  8
0
  6
Continuous
 62
     7
370
    25
100
AcDbLine
 10
205.3295369748
 20
131.5314365546
 30
0.0
 11
130.9723694945
 21
131.5314365546
 31
0.0
  0
CIRCLE
  5
87
330
1F
100
AcDbEntity
  8
0
  6
Continuous
 62
     7
370
    25
100
AcDbCircle
 10
114.3295369748
 20
111.5314365546
 30
0.0
 40
20.0
  0
CIRCLE
  5
88
330
1F
100
AcDbEntity
  8
0
  6
Continuous
 62
     7
370
    25
100
AcDbCircle
 10
114.3295369748
 20
111.5314365546
 30
0.0
 40
26.00000000000003
  0
LINE
  5
89
330
1F
100
AcDbEntity
  8
0
  6
Continuous
 62
     7
370
    25
100
AcDbLine
 10
114.3295369748
 20
178.5314365546
 30
0.0
 11
107.3295369748
 21
178.5314365546
 31
0.0
  0
LINE
  5
8A
330
1F
100
AcDbEntity
  8
0
  6
Continuous
 62
     7
370
    25
100
AcDbLine
 10
121.3295369748
 20
178.5314365546
 30
0.0
 11
114.3295369748
 21
178.5314365546
 31
0.0
  0
LINE
  5
8B
330
1F
100
AcDbEntity
  8
0
  6
Continuous
 62
     7
370
    25
100
AcDbLine
 10
205.3295369748
 20
131.5314365546
 30
0.0
 11
205.3295369748
 21
91.5314365546
 31
0.0
  0
INSERT
  5
97
330
1F
100
AcDbEntity
  8
FORMAT
 62
     7
100
AcDbBlockReference
  2
SW_CENTERMARKSYMBOL_0
 10
114.3295369748
 20
111.5314365546
 30
0.0
  0
LINE
  5
98
330
1F
100
AcDbEntity
  8
0
  6
Continuous
 62
     7
370
    25
100
AcDbLine
 10
-109.7141306849
 20
137.5314365546
 30
0.0
 11
-110.7254483777
 21
137.5314365546
 31
0.0
  0
LINE
  5
99
330
1F
100
AcDbEntity
  8
0
  6
Continuous
 62
     7
370
    25
100
AcDbLine
 10
5.2858693151
 20
137.5314365546
 30
0.0
 11
-95.7254483777
 21
137.5314365546
 31
0.0
  0
LINE
  5
9A
330
1F
100
AcDbEntity
  8
0
  6
Continuous
 62
     7
370
    25
100
AcDbLine
 10
20.2745516223
 20
137.5314365546
 30
0.0
 11
19.2745516223
 21
137.5314365546
 31
0.0
  0
LINE
  5
9B
330
1F
100
AcDbEntity
  8
0
  6
Continuous
 62
     7
370
    25
100
AcDbLine
 10
-110.7254483777
 20
85.5314365546
 30
0.0
 11
20.2745516223
 21
85.5314365546
 31
0.0
  0
LINE
  5
9C
330
1F
100
AcDbEntity
  8
0
  6
Continuous
 62
     7
370
    25
100
AcDbLine
 10
19.2745516223
 20
137.5314365546
 30
0.0
 11
19.2745516223
 21
178.5314365546
 31
0.0
  0
LINE
  5
9D
330
1F
100
AcDbEntity
  8
0
  6
Continuous
 62
     7
370
    25
100
AcDbLine
 10
5.2745516223
 20
178.5314365546
 30
0.0
 11
5.2745516223
 21
137.5284112287
 31
0.0
  0
LINE
  5
9E
330
1F
100
AcDbEntity
  8
0
  6
Continuous
 62
     7
370
    25
100
AcDbLine
 10
-95.7254483777
 20
137.5314365546
 30
0.0
 11
-95.7254483777
 21
178.5314365546
 31
0.0
  0
LINE
  5
9F
330
1F
100
AcDbEntity
  8
0
  6
Continuous
 62
     7
370
    25
100
AcDbLine
 10
-109.7254483777
 20
178.5314365546
 30
0.0
 11
-109.7254483777
 21
137.5284112287
 31
0.0
  0
CIRCLE
  5
A0
330
1F
100
AcDbEntity
  8
0
  6
Continuous
 62
     7
370
    25
100
AcDbCircle
 10
-45.2254483777
 20
111.5314365546
 30
0.0
 40
16.3
  0
CIRCLE
  5
A1
330
1F
100
AcDbEntity
  8
0
  6
Continuous
 62
     7
370
    25
100
AcDbCircle
 10
-45.2254483777
 20
111.5314365546
 30
0.0
 40
20.0
  0
LINE
  5
A2
330
1F
100
AcDbEntity
  8
0
  6
Continuous
 62
     7
370
    25
100
AcDbLine
 10
-110.7254483777
 20
111.5314365546
 30
0.0
 11
-110.7254483777
 21
137.5314365546
 31
0.0
  0
LINE
  5
A3
330
1F
100
AcDbEntity
  8
0
  6
Continuous
 62
     7
370
    25
100
AcDbLine
 10
-110.7254483777
 20
85.5314365546
 30
0.0
 11
-110.7254483777
 21
111.5314365546
 31
0.0
  0
LINE
  5
A4
330
1F
100
AcDbEntity
  8
0
  6
Continuous
 62
     7
370
    25
100
AcDbLine
 10
20.2745516223
 20
111.5314365546
 30
0.0
 11
20.2745516223
 21
137.5314365546
 31
0.0
  0
LINE
  5
A5
330
1F
100
AcDbEntity
  8
0
  6
Continuous
 62
     7
370
    25
100
AcDbLine
 10
20.2745516223
 20
85.5314365546
 30
0.0
 11
20.2745516223
 21
111.5314365546
 31
0.0
  0
SPLINE
  5
A6
330
1F
100
AcDbEntity
  8
0
  6
Continuous
 62
     7
370
    25
100
AcDbSpline
210
0.0
220
0.0
230
1.0
 70
     8
 71
     3
 72
    26
 73
    22
 74
     0
 42
0.00000001
 43
0.00000001
 40
0.0
 40
0.0
 40
0.0
 40
0.0
 40
0.0516333363898261
 40
0.1047962893514215
 40
0.1564208821522509
 40
0.2094845500307906
 40
0.2622070182084784
 40
0.3164045673347065
 40
0.3699896842020535
 40
0.4251980407114834
 40
0.4775299627412461
 40
0.5314698748620541
 40
0.5823674886978036
 40
0.63471176072976
 40
0.6862313439828477
 40
0.7391519265833404
 40
0.7923532634659013
 40
0.8470804023057399
 40
0.9004624333620764
 40
0.9554842890742948
 40
1.0
 40
1.0
 40
1.0
 40
1.0
 10
19.27455162225369
 20
137.5314365546218
 30
0.0
 10
19.25657966229256
 20
137.526568574775
 30
0.0
 10
19.22010333037248
 20
137.5166884031599
 30
0.0
 10
18.92725022681437
 20
137.4392393444576
 30
0.0
 10
18.46575267588531
 20
137.3236855262185
 30
0.0
 10
17.83650213939954
 20
137.1785621779438
 30
0.0
 10
17.04612323316864
 20
137.0173248161828
 30
0.0
 10
16.11918675898916
 20
136.858501311071
 30
0.0
 10
15.06577935696436
 20
136.7185715728135
 30
0.0
 10
13.93992480752457
 20
136.6178403218582
 30
0.0
 10
12.7615528297127
 20
136.5669233094264
 30
0.0
 10
11.59939641398936
 20
136.571590652423
 30
0.0
 10
10.45809130165364
 20
136.6291447015359
 30
0.0
 10
9.384862151043679
 20
136.7304845072956
 30
0.0
 10
8.378391513290632
 20
136.8668277152822
 30
0.0
 10
7.472595706182118
 20
137.0231312587261
 30
0.0
 10
6.682186990375732
 20
137.1850874377687
 30
0.0
 10
6.04495519788624
 20
137.3328953109286
 30
0.0
 10
5.584021392551139
 20
137.4490060663174
 30
0.0
 10
5.314523805368627
 20
137.5206244293093
 30
0.0
 10
5.294724198693028
 20
137.5259982225174
 30
0.0
 10
5.285869315084908
 20
137.5284015184096
 30
0.0
  0
SPLINE
  5
A7
330
1F
100
AcDbEntity
  8
0
  6
Continuous
 62
     7
370
    25
100
AcDbSpline
210
0.0
220
0.0
230
1.0
 70
     8
 71
     3
 72
    26
 73
    22
 74
     0
 42
0.00000001
 43
0.00000001
 40
0.0
 40
0.0
 40
0.0
 40
0.0
 40
0.0516333363898261
 40
0.1047962893514215
 40
0.1564208821522513
 40
0.2094845500307907
 40
0.2622070182084787
 40
0.3164045673347064
 40
0.3699896842020537
 40
0.4251980407114835
 40
0.4775299627412463
 40
0.5314698748620542
 40
0.5823674886978034
 40
0.6347117607297597
 40
0.6862313439828475
 40
0.7391519265833401
 40
0.7923532634659013
 40
0.84708040230574
 40
0.9004624333620765
 40
0.9554842890742952
 40
1.0
 40
1.0
 40
1.0
 40
1.0
 10
-95.72544837774632
 20
137.5314365546218
 30
0.0
 10
-95.74342033770745
 20
137.526568574775
 30
0.0
 10
-95.77989666962752
 20
137.5166884031599
 30
0.0
 10
-96.07274977318566
 20
137.4392393444576
 30
0.0
 10
-96.53424732411469
 20
137.3236855262185
 30
0.0
 10
-97.1634978606005
 20
137.1785621779438
 30
0.0
 10
-97.95387676683137
 20
137.0173248161828
 30
0.0
 10
-98.88081324101086
 20
136.858501311071
 30
0.0
 10
-99.93422064303564
 20
136.7185715728135
 30
0.0
 10
-101.0600751924754
 20
136.6178403218582
 30
0.0
 10
-102.2384471702873
 20
136.5669233094264
 30
0.0
 10
-103.4006035860107
 20
136.571590652423
 30
0.0
 10
-104.5419086983464
 20
136.6291447015359
 30
0.0
 10
-105.6151378489563
 20
136.7304845072956
 30
0.0
 10
-106.6216084867094
 20
136.8668277152822
 30
0.0
 10
-107.5274042938179
 20
137.0231312587261
 30
0.0
 10
-108.3178130096243
 20
137.1850874377687
 30
0.0
 10
-108.9550448021138
 20
137.3328953109286
 30
0.0
 10
-109.4159786074488
 20
137.4490060663174
 30
0.0
 10
-109.6854761946314
 20
137.5206244293093
 30
0.0
 10
-109.705275801307
 20
137.5259982225174
 30
0.0
 10
-109.7141306849151
 20
137.5284015184096
 30
0.0
  0
LINE
  5
A8
330
1F
100
AcDbEntity
  8
0
  6
Continuous
 62
     7
370
    25
100
AcDbLine
 10
19.2745516223
 20
178.5314365546
 30
0.0
 11
5.2745516223
 21
178.5314365546
 31
0.0
  0
LINE
  5
A9
330
1F
100
AcDbEntity
  8
0
  6
Continuous
 62
     7
370
    25
100
AcDbLine
 10
-95.7254483777
 20
178.5314365546
 30
0.0
 11
-109.7254483777
 21
178.5314365546
 31
0.0
  0
INSERT
  5
B5
330
1F
100
AcDbEntity
  8
FORMAT
 62
     7
100
AcDbBlockReference
  2
SW_CENTERMARKSYMBOL_1
 10
-45.2254483777
 20
111.5314365546
 30
0.0
  0
LINE
  5
B6
330
1F
100
AcDbEntity
  8
0
  6
Continuous
 62
     7
370
    25
100
AcDbLine
 10
140.3295369748
 20
280.0503145473
 30
0.0
 11
140.3295369748
 21
325.5503145473
 31
0.0
  0
LINE
  5
B7
330
1F
100
AcDbEntity
  8
0
  6
Continuous
 62
     7
370
    25
100
AcDbLine
 10
140.3295369748
 20
194.5503145473
 30
0.0
 11
140.3295369748
 21
240.0649774786
 31
0.0
  0
LINE
  5
B8
330
1F
100
AcDbEntity
  8
0
  6
Continuous
 62
     7
370
    25
100
AcDbLine
 10
88.3295369748
 20
325.5503145473
 30
0.0
 11
88.3295369748
 21
194.5503145473
 31
0.0
  0
LINE
  5
B9
330
1F
100
AcDbEntity
  8
0
  6
Continuous
 62
     7
370
    25
100
AcDbLine
 10
140.3182418092
 20
240.0503145473
 30
0.0
 11
205.3295369748
 21
240.0503145473
 31
0.0
  0
LINE
  5
BA
330
1F
100
AcDbEntity
  8
0
  6
Continuous
 62
     7
370
    25
100
AcDbLine
 10
205.3295369748
 20
280.0503145473
 30
0.0
 11
140.3295369748
 21
280.0503145473
 31
0.0
  0
SPLINE
  5
BB
330
1F
100
AcDbEntity
  8
0
  6
Continuous
 62
     7
370
    25
100
AcDbSpline
210
0.0
220
0.0
230
1.0
 70
     8
 71
     3
 72
    39
 73
    35
 74
     0
 42
0.00000001
 43
0.00000001
 40
0.0
 40
0.0
 40
0.0
 40
0.0
 40
0.0433293156844173
 40
0.0657339791998564
 40
0.0881405502957576
 40
0.1314342891288433
 40
0.1757940312792901
 40
0.2232872612895866
 40
0.2717274631022918
 40
0.3004611510776028
 40
0.329193690072332
 40
0.35872539525021
 40
0.3882486884351711
 40
0.4253042763799778
 40
0.4632207972599984
 40
0.500351652136693
 40
0.5388998004514597
 40
0.5716896048479574
 40
0.6051574637371192
 40
0.6322570736672947
 40
0.6593637518245371
 40
0.6872158582161175
 40
0.7150698617200884
 40
0.7430878612476093
 40
0.7711044269336212
 40
0.7998624603171324
 40
0.8286163489887216
 40
0.8743651412672284
 40
0.897871599518308
 40
0.9213752741469533
 40
0.9443044186617613
 40
0.9672316963091648
 40
0.9910137929982928
 40
1.0
 40
1.0
 40
1.0
 40
1.0
 10
140.3295369747899
 20
280.0503145473224
 30
0.0
 10
140.3001830342665
 20
280.0122339423061
 30
0.0
 10
140.2556507981736
 20
279.954462669935
 30
0.0
 10
139.9831272591392
 20
279.5982815647674
 30
0.0
 10
139.6220230750581
 20
279.1227493231688
 30
0.0
 10
138.9979604725278
 20
278.291186121784
 30
0.0
 10
138.0135281195504
 20
276.9413108987077
 30
0.0
 10
136.8188430001036
 20
275.2298017660763
 30
0.0
 10
135.6642916678891
 20
273.4599641852005
 30
0.0
 10
134.6691868299731
 20
271.8036921335336
 30
0.0
 10
133.8631650686015
 20
270.3507776962995
 30
0.0
 10
133.0836505308402
 20
268.7916946067303
 30
0.0
 10
132.3014134026104
 20
266.9810075971482
 30
0.0
 10
131.5839358472778
 20
264.8853783414171
 30
0.0
 10
131.0635093785996
 20
262.4986068538751
 30
0.0
 10
130.8786716676146
 20
259.9912160560839
 30
0.0
 10
131.0703134105837
 20
257.5973395784486
 30
0.0
 10
131.5518843041062
 20
255.3677932728607
 30
0.0
 10
132.1693301095071
 20
253.4804919150731
 30
0.0
 10
132.8599918417927
 20
251.8043244558792
 30
0.0
 10
133.5707341428456
 20
250.3167144645076
 30
0.0
 10
134.3274708642799
 20
248.8982381936459
 30
0.0
 10
135.1119629011301
 20
247.5496339341819
 30
0.0
 10
135.8973741620706
 20
246.2854125149596
 30
0.0
 10
136.6742122068365
 20
245.0996875580788
 30
0.0
 10
137.4229962709137
 20
244.0034335002244
 30
0.0
 10
138.2649260021649
 20
242.812309858477
 30
0.0
 10
138.9634516416621
 20
241.8585340450391
 30
0.0
 10
139.4998280628029
 20
241.1405068091724
 30
0.0
 10
139.8328464151894
 20
240.6998981576231
 30
0.0
 10
140.0862550370036
 20
240.367308692537
 30
0.0
 10
140.2525578204991
 20
240.1504279786278
 30
0.0
 10
140.3315588741116
 20
240.0476292864339
 30
0.0
 10
140.3211075204227
 20
240.0612438832746
 30
0.0
 10
140.318241396238
 20
240.0649774785991
 30
0.0
  0
LINE
  5
BC
330
1F
100
AcDbEntity
  8
0
  6
Continuous
 62
     7
370
    25
100
AcDbLine
 10
88.3295369748
 20
325.5503145473
 30
0.0
 11
140.3295369748
 21
325.5503145473
 31
0.0
  0
LINE
  5
BD
330
1F
100
AcDbEntity
  8
0
  6
Continuous
 62
     7
370
    25
100
AcDbLine
 10
88.3295369748
 20
194.5503145473
 30
0.0
 11
140.3295369748
 21
194.5503145473
 31
0.0
  0
LINE
  5
BE
330
1F
100
AcDbEntity
  8
0
  6
Continuous
 62
     7
370
    25
100
AcDbLine
 10
205.3295369748
 20
280.0503145473
 30
0.0
 11
205.3295369748
 21
240.0503145473
 31
0.0
  0
LINE
  5
BF
330
1F
100
AcDbEntity
  8
0
  6
Continuous
 62
     7
370
    25
100
AcDbLine
 10
263.8093546962
 20
85.5314365546
 30
0.0
 11
394.8093546962
 21
85.5314365546
 31
0.0
  0
LINE
  5
C0
330
1F
100
AcDbEntity
  8
0
  6
Continuous
 62
     7
370
    25
100
AcDbLine
 10
264.8093546962
 20
137.5314365546
 30
0.0
 11
263.8093546962
 21
137.5314365546
 31
0.0
  0
LINE
  5
C1
330
1F
100
AcDbEntity
  8
0
  6
Continuous
 62
     7
370
    25
100
AcDbLine
 10
379.8093546962
 20
137.5314365546
 30
0.0
 11
278.7980370034
 21
137.5314365546
 31
0.0
  0
LINE
  5
C2
330
1F
100
AcDbEntity
  8
0
  6
Continuous
 62
     7
370
    25
100
AcDbLine
 10
394.8093546962
 20
137.5314365546
 30
0.0
 11
393.7980370034
 21
137.5314365546
 31
0.0
  0
LINE
  5
C3
330
1F
100
AcDbEntity
  8
0
  6
Continuous
 62
     7
370
    25
100
AcDbLine
 10
278.8093546962
 20
137.5284112287
 30
0.0
 11
278.8093546962
 21
178.5314365546
 31
0.0
  0
LINE
  5
C4
330
1F
100
AcDbEntity
  8
0
  6
Continuous
 62
     7
370
    25
100
AcDbLine
 10
264.8093546962
 20
178.5314365546
 30
0.0
 11
264.8093546962
 21
137.5314365546
 31
0.0
  0
LINE
  5
C5
330
1F
100
AcDbEntity
  8
0
  6
Continuous
 62
     7
370
    25
100
AcDbLine
 10
393.8093546962
 20
137.5284112287
 30
0.0
 11
393.8093546962
 21
178.5314365546
 31
0.0
  0
LINE
  5
C6
330
1F
100
AcDbEntity
  8
0
  6
Continuous
 62
     7
370
    25
100
AcDbLine
 10
379.8093546962
 20
178.5314365546
 30
0.0
 11
379.8093546962
 21
137.5314365546
 31
0.0
  0
LINE
  5
C7
330
1F
100
AcDbEntity
  8
0
  6
Continuous
 62
     7
370
    25
100
AcDbLine
 10
394.8093546962
 20
137.5314365546
 30
0.0
 11
394.8093546962
 21
85.5314365546
 31
0.0
  0
LINE
  5
C8
330
1F
100
AcDbEntity
  8
0
  6
Continuous
 62
     7
370
    25
100
AcDbLine
 10
263.8093546962
 20
137.5314365546
 30
0.0
 11
263.8093546962
 21
85.5314365546
 31
0.0
  0
SPLINE
  5
C9
330
1F
100
AcDbEntity
  8
0
  6
Continuous
 62
     7
370
    25
100
AcDbSpline
210
0.0
220
0.0
230
1.0
 70
     8
 71
     3
 72
    27
 73
    23
 74
     0
 42
0.00000001
 43
0.00000001
 40
0.0
 40
0.0
 40
0.0
 40
0.0
 40
0.0073045518332295
 40
0.060680249718922
 40
0.1116410447182827
 40
0.164026149681933
 40
0.2160213579243268
 40
0.2694418687074533
 40
0.322889299421986
 40
0.3779007948775952
 40
0.4309828043110758
 40
0.4857098993649918
 40
0.5370462990690053
 40
0.589898722798632
 40
0.6408800816072934
 40
0.6932582501313604
 40
0.74576789170362
 40
0.7997350271708346
 40
0.8533260414361719
 40
0.9085260539650442
 40
0.9537567735828314
 40
1.0
 40
1.0
 40
1.0
 40
1.0
 10
278.7980370034007
 20
137.5284015184096
 30
0.0
 10
278.8016722250421
 20
137.5293762487899
 30
0.0
 10
278.8318706769138
 20
137.5374735125554
 30
0.0
 10
278.7047719322552
 20
137.503190641124
 30
0.0
 10
278.4086826344757
 20
137.4255784911499
 30
0.0
 10
277.9243702280891
 20
137.30530111856
 30
0.0
 10
277.274405634594
 20
137.1576012029975
 30
0.0
 10
276.4706607003579
 20
136.9966960276738
 30
0.0
 10
275.5204482502264
 20
136.8383180734664
 30
0.0
 10
274.4630264231675
 20
136.7036050454442
 30
0.0
 10
273.3174642192963
 20
136.6077660674916
 30
0.0
 10
272.1513077999602
 20
136.5645199352513
 30
0.0
 10
270.977658173193
 20
136.5764497252576
 30
0.0
 10
269.8551183536919
 20
136.6395245020396
 30
0.0
 10
268.7812017861644
 20
136.7469416521368
 30
0.0
 10
267.7923622474676
 20
136.8858318112052
 30
0.0
 10
266.8954672892782
 20
137.0446030031633
 30
0.0
 10
266.1277742517543
 20
137.2049123260919
 30
0.0
 10
265.5068674866137
 20
137.3506930959923
 30
0.0
 10
265.0937635827843
 20
137.4557347709665
 30
0.0
 10
264.8521647523365
 20
137.5198519055978
 30
0.0
 10
264.8237296291625
 20
137.5275466145494
 30
0.0
 10
264.8093546962319
 20
137.5314365546218
 30
0.0
  0
SPLINE
  5
CA
330
1F
100
AcDbEntity
  8
0
  6
Continuous
 62
     7
370
    25
100
AcDbSpline
210
0.0
220
0.0
230
1.0
 70
     8
 71
     3
 72
    27
 73
    23
 74
     0
 42
0.00000001
 43
0.00000001
 40
0.0
 40
0.0
 40
0.0
 40
0.0
 40
0.0073045518332298
 40
0.0606802497189223
 40
0.1116410447182829
 40
0.1640261496819332
 40
0.2160213579243273
 40
0.2694418687074536
 40
0.3228892994219864
 40
0.3779007948775955
 40
0.4309828043110761
 40
0.4857098993649918
 40
0.5370462990690055
 40
0.5898987227986323
 40
0.6408800816072938
 40
0.6932582501313606
 40
0.7457678917036196
 40
0.7997350271708342
 40
0.853326041436172
 40
0.9085260539650443
 40
0.9537567735828312
 40
1.0
 40
1.0
 40
1.0
 40
1.0
 10
393.7980370034008
 20
137.5284015184096
 30
0.0
 10
393.8016722250421
 20
137.5293762487899
 30
0.0
 10
393.8318706769138
 20
137.5374735125554
 30
0.0
 10
393.7047719322552
 20
137.503190641124
 30
0.0
 10
393.4086826344758
 20
137.4255784911499
 30
0.0
 10
392.9243702280891
 20
137.3053011185599
 30
0.0
 10
392.2744056345939
 20
137.1576012029975
 30
0.0
 10
391.4706607003579
 20
136.9966960276737
 30
0.0
 10
390.5204482502264
 20
136.8383180734664
 30
0.0
 10
389.4630264231675
 20
136.7036050454442
 30
0.0
 10
388.3174642192963
 20
136.6077660674916
 30
0.0
 10
387.1513077999602
 20
136.5645199352512
 30
0.0
 10
385.977658173193
 20
136.5764497252576
 30
0.0
 10
384.8551183536919
 20
136.6395245020396
 30
0.0
 10
383.7812017861644
 20
136.7469416521368
 30
0.0
 10
382.7923622474676
 20
136.8858318112051
 30
0.0
 10
381.8954672892782
 20
137.0446030031633
 30
0.0
 10
381.1277742517544
 20
137.2049123260919
 30
0.0
 10
380.5068674866137
 20
137.3506930959923
 30
0.0
 10
380.0937635827843
 20
137.4557347709665
 30
0.0
 10
379.8521647523365
 20
137.5198519055978
 30
0.0
 10
379.8237296291625
 20
137.5275466145494
 30
0.0
 10
379.8093546962319
 20
137.5314365546218
 30
0.0
  0
LINE
  5
CB
330
1F
100
AcDbEntity
  8
0
  6
Continuous
 62
     7
370
    25
100
AcDbLine
 10
278.8093546962
 20
178.5314365546
 30
0.0
 11
264.8093546962
 21
178.5314365546
 31
0.0
  0
LINE
  5
CC
330
1F
100
AcDbEntity
  8
0
  6
Continuous
 62
     7
370
    25
100
AcDbLine
 10
393.8093546962
 20
178.5314365546
 30
0.0
 11
379.8093546962
 21
178.5314365546
 31
0.0
  0
LINE
  5
CD
330
1F
100
AcDbEntity
  8
0
  6
Continuous
 62
     7
370
    25
100
AcDbLine
 10
88.3295369748
 20
53.3878807681
 30
0.0
 11
88.3295369748
 21
-77.6121192319
 31
0.0
  0
LINE
  5
CE
330
1F
100
AcDbEntity
  8
0
  6
Continuous
 62
     7
370
    25
100
AcDbLine
 10
140.3295369748
 20
7.8732178368
 30
0.0
 11
140.3295369748
 21
53.3878807681
 31
0.0
  0
LINE
  5
CF
330
1F
100
AcDbEntity
  8
0
  6
Continuous
 62
     7
370
    25
100
AcDbLine
 10
140.3295369748
 20
-77.6121192319
 30
0.0
 11
140.3295369748
 21
-32.1121192319
 31
0.0
  0
LINE
  5
D0
330
1F
100
AcDbEntity
  8
0
  6
Continuous
 62
     7
370
    25
100
AcDbLine
 10
140.3295369748
 20
-32.1121192319
 30
0.0
 11
205.3295369748
 21
-32.1121192319
 31
0.0
  0
LINE
  5
D1
330
1F
100
AcDbEntity
  8
0
  6
Continuous
 62
     7
370
    25
100
AcDbLine
 10
205.3295369748
 20
7.8878807681
 30
0.0
 11
140.3182418092
 21
7.8878807681
 31
0.0
  0
CIRCLE
  5
D2
330
1F
100
AcDbEntity
  8
0
  6
Continuous
 62
     7
370
    25
100
AcDbCircle
 10
114.3295369748
 20
45.3878807681
 30
0.0
 40
5.000000000000014
  0
CIRCLE
  5
D3
330
1F
100
AcDbEntity
  8
0
  6
Continuous
 62
     7
370
    25
100
AcDbCircle
 10
114.3295369748
 20
45.3878807681
 30
0.0
 40
7.000000000000014
  0
CIRCLE
  5
D4
330
1F
100
AcDbEntity
  8
0
  6
Continuous
 62
     7
370
    25
100
AcDbCircle
 10
114.3295369748
 20
-69.6121192319
 30
0.0
 40
7.0
  0
CIRCLE
  5
D5
330
1F
100
AcDbEntity
  8
0
  6
Continuous
 62
     7
370
    25
100
AcDbCircle
 10
114.3295369748
 20
-69.6121192319
 30
0.0
 40
5.0
  0
LWPOLYLINE
  5
D6
330
1F
100
AcDbEntity
  8
0
  6
Continuous
 62
     7
370
    25
100
AcDbPolyline
 90
       31
 70
   128
 43
0.0
 10
140.3182413962
 20
7.8732178368
 10
140.3111338166
 20
7.8639508133
 10
140.0738410221
 20
7.5543291226
 10
139.5625449349
 20
6.8801078811
 10
138.8246085137
 20
5.8881177025
 10
137.8823675913
 20
4.5832642632
 10
136.6456357256
 20
2.7878224946
 10
135.2839273754
 20
0.6584123569
 10
134.4704340796
 20
-0.7252076063
 10
133.6742702922
 20
-2.2015840737
 10
132.8982506374
 20
-3.8173696219
 10
132.1991587399
 20
-5.5300692451
 10
131.5097356465
 20
-7.7349938741
 10
131.0624763786
 20
-10.1143051532
 10
130.9475112631
 20
-12.508439111
 10
131.1876360468
 20
-14.9748983574
 10
131.8000328338
 20
-17.5175077989
 10
132.70474587
 20
-19.9637624957
 10
133.4365413589
 20
-21.5505442168
 10
134.2182358731
 20
-23.0464845024
 10
135.0463471802
 20
-24.4891940009
 10
135.8766298415
 20
-25.8335335543
 10
136.6814355586
 20
-27.0657383398
 10
137.4491769833
 20
-28.1906065402
 10
138.1836013186
 20
-29.2299138531
 10
138.8394981514
 20
-30.1326130343
 10
139.6007762009
 20
-31.1551109093
 10
140.1192060595
 20
-31.8379153248
 10
140.2759705528
 20
-32.0424332138
 10
140.3295369748
 20
-32.1121192319
 10
140.3295369748
 20
-32.1121192319
  0
LINE
  5
D7
330
1F
100
AcDbEntity
  8
0
  6
Continuous
 62
     7
370
    25
100
AcDbLine
 10
140.3295369748
 20
-77.6121192319
 30
0.0
 11
88.3295369748
 21
-77.6121192319
 31
0.0
  0
LINE
  5
D8
330
1F
100
AcDbEntity
  8
0
  6
Continuous
 62
     7
370
    25
100
AcDbLine
 10
140.3295369748
 20
53.3878807681
 30
0.0
 11
88.3295369748
 21
53.3878807681
 31
0.0
  0
LINE
  5
D9
330
1F
100
AcDbEntity
  8
0
  6
Continuous
 62
     7
370
    25
100
AcDbLine
 10
205.3295369748
 20
7.8878807681
 30
0.0
 11
205.3295369748
 21
-32.1121192319
 31
0.0
  0
INSERT
  5
E5
330
1F
100
AcDbEntity
  8
FORMAT
 62
     7
100
AcDbBlockReference
  2
SW_CENTERMARKSYMBOL_2
 10
114.3295369748
 20
45.3878807681
 30
0.0
  0
INSERT
  5
F1
330
1F
100
AcDbEntity
  8
FORMAT
 62
     7
100
AcDbBlockReference
  2
SW_CENTERMARKSYMBOL_3
 10
114.3295369748
 20
-69.6121192319
 30
0.0
  0
LINE
  5
F2
330
1F
100
AcDbEntity
  8
0
  6
Continuous
 62
     7
370
    25
100
AcDbLine
 10
341.1680723991
 20
-39.4787588846
 30
0.0
 11
390.0904199362
 21
-11.236488805
 31
0.0
  0
LINE
  5
F3
330
1F
100
AcDbEntity
  8
0
  6
Continuous
 62
     7
370
    25
100
AcDbLine
 10
370.0920452835
 20
23.4054656902
 30
0.0
 11
321.1694545122
 21
-4.8369448055
 31
0.0
  0
LINE
  5
F4
330
1F
100
AcDbEntity
  8
0
  6
Continuous
 62
     7
370
    25
100
AcDbLine
 10
321.7450031657
 20
-4.5046876401
 30
0.0
 11
282.4279648784
 21
18.1925554387
 31
0.0
  0
LINE
  5
F5
330
1F
100
AcDbEntity
  8
0
  6
Continuous
 62
     7
370
    25
100
AcDbLine
 10
375.0589532138
 20
-35.2821758856
 30
0.0
 11
361.7482541244
 21
-27.598072862
 31
0.0
  0
LINE
  5
F6
330
1F
100
AcDbEntity
  8
0
  6
Continuous
 62
     7
370
    25
100
AcDbLine
 10
256.4300778299
 20
-26.841985405
 30
0.0
 11
349.0610661653
 21
-80.3167167294
 31
0.0
  0
LINE
  5
F7
330
1F
100
AcDbEntity
  8
0
  6
Continuous
 62
     7
370
    25
100
AcDbLine
 10
282.0858756036
 20
18.3799098832
 30
0.0
 11
282.0858756036
 21
47.1178869659
 31
0.0
  0
LINE
  5
F8
330
1F
100
AcDbEntity
  8
0
  6
Continuous
 62
     7
370
    25
100
AcDbLine
 10
268.0858756036
 20
47.1178869659
 30
0.0
 11
268.0858756036
 21
16.0732321441
 31
0.0
  0
LINE
  5
F9
330
1F
100
AcDbEntity
  8
0
  6
Continuous
 62
     7
370
    25
100
AcDbLine
 10
363.4031554401
 20
-28.5534270563
 30
0.0
 11
363.4031554401
 21
-26.6427186678
 31
0.0
  0
SPLINE
  5
FA
330
1F
100
AcDbEntity
  8
0
  6
Continuous
 62
     7
370
    25
100
AcDbSpline
210
0.0
220
0.0
230
1.0
 70
     8
 71
     3
 72
    30
 73
    26
 74
     0
 42
0.00000001
 43
0.00000001
 40
0.0
 40
0.0
 40
0.0
 40
0.0
 40
0.0576068492465592
 40
0.0873941203623582
 40
0.1171839276294529
 40
0.1747434770218843
 40
0.2337202907174683
 40
0.2968631144205265
 40
0.3612649485879875
 40
0.3994667342692392
 40
0.4376669923669111
 40
0.4769297515705528
 40
0.516181326927873
 40
0.5654471792673501
 40
0.6158576523567023
 40
0.6652235729924364
 40
0.7164738023954681
 40
0.760068243915174
 40
0.8045641670835713
 40
0.8405934262405445
 40
0.8766320826908895
 40
0.9136617949943295
 40
0.9506940295316371
 40
0.9879442987656957
 40
0.9999999999999999
 40
0.9999999999999999
 40
0.9999999999999999
 40
0.9999999999999999
 10
319.9871562089708
 20
-12.28469407342083
 30
0.0
 10
319.9933268926109
 20
-13.09321870388734
 30
0.0
 10
320.0026883049396
 20
-14.31981414861464
 30
0.0
 10
320.0618431372499
 20
-16.1241722935233
 30
0.0
 10
320.1427559926784
 20
-17.97543619664022
 30
0.0
 10
320.2894810732301
 20
-20.36979796632533
 30
0.0
 10
320.547888204807
 20
-23.34610870799521
 30
0.0
 10
320.9133379692354
 20
-26.40670816173843
 30
0.0
 10
321.3484110479494
 20
-29.04540812729232
 30
0.0
 10
321.815926868491
 20
-31.19977901585733
 30
0.0
 10
322.2733490656379
 20
-32.90650095421061
 30
0.0
 10
322.824587277544
 20
-34.55121044451885
 30
0.0
 10
323.5518111524837
 20
-36.24673043227286
 30
0.0
 10
324.5263116137666
 20
-37.93174900263453
 30
0.0
 10
325.8460166412509
 20
-39.48152440724236
 30
0.0
 10
327.4883103893943
 20
-40.70466261895969
 30
0.0
 10
329.316545255928
 20
-41.47489735213345
 30
0.0
 10
331.2336030613825
 20
-41.85169167820056
 30
0.0
 10
333.0046977356604
 20
-41.9119551297589
 30
0.0
 10
334.6783880754148
 20
-41.76274752637259
 30
0.0
 10
336.2325372980732
 20
-41.46847529488128
 30
0.0
 10
337.7718759229435
 20
-41.03176040197047
 30
0.0
 10
339.2755737447374
 20
-40.44847693726096
 30
0.0
 10
340.4109586241947
 20
-39.92337306000601
 30
0.0
 10
341.0129757688408
 20
-39.55533255527325
 30
0.0
 10
341.1601737403002
 20
-39.46534372988286
 30
0.0
  0
SPLINE
  5
FB
330
1F
100
AcDbEntity
  8
0
  6
Continuous
 62
     7
370
    25
100
AcDbSpline
210
0.0
220
0.0
230
1.0
 70
     8
 71
     3
 72
    15
 73
    11
 74
     0
 42
0.00000001
 43
0.00000001
 40
0.0
 40
0.0
 40
0.0
 40
0.0
 40
0.0794382781908869
 40
0.1980623566419672
 40
0.3205552034892684
 40
0.4430216591752068
 40
0.6177261674237364
 40
0.7971743292206266
 40
0.898041920163043
 40
1.0
 40
1.0
 40
1.0
 40
1.0
 10
321.1782504789341
 20
-4.851880760625288
 30
0.0
 10
321.1088344223788
 20
-4.891825143328324
 30
0.0
 10
320.9357603318617
 20
-4.991417918410412
 30
0.0
 10
320.7148751653045
 20
-5.329055429343962
 30
0.0
 10
320.5006072236891
 20
-5.860374400935512
 30
0.0
 10
320.3025223532302
 20
-6.688783878486992
 30
0.0
 10
320.1349979601977
 20
-7.927357566160066
 30
0.0
 10
320.0378219701972
 20
-9.461300733958996
 30
0.0
 10
319.9937226201681
 20
-10.95407013216154
 30
0.0
 10
319.9893528440464
 20
-11.83956580867071
 30
0.0
 10
319.9871562089708
 20
-12.28469407342083
 30
0.0
  0
LWPOLYLINE
  5
FC
330
1F
100
AcDbEntity
  8
0
  6
Continuous
 62
     7
370
    25
100
AcDbPolyline
 90
       77
 70
   128
 43
0.0
 10
394.2333682336
 20
-2.0795926756
 10
394.1850656704
 20
-0.7031200835
 10
394.0404879365
 20
0.7197187573
 10
393.8006226444
 20
2.179204415
 10
393.4671083172
 20
3.6653671224
 10
393.042223196
 20
5.1680548814
 10
392.5288696769
 20
6.6770028109
 10
391.9305544851
 20
8.1819032664
 10
391.2513647199
 20
9.672476252
 10
390.4959399362
 20
11.1385396426
 10
389.6694404512
 20
12.5700787389
 10
388.7775120945
 20
13.957314677
 10
387.8262476411
 20
15.2907712291
 10
386.8221451919
 20
16.5613395347
 10
385.7720637847
 20
17.7603403239
 10
384.6831765403
 20
18.8795832056
 10
383.5629216626
 20
19.9114226161
 10
382.4189516285
 20
20.8488100458
 10
381.2590809132
 20
21.6853421881
 10
380.0912326098
 20
22.4153046803
 10
378.9233843064
 20
23.0337111384
 10
377.7635135911
 20
23.5363372191
 10
376.619543557
 20
23.9197494768
 10
375.4992886794
 20
24.1813288169
 10
374.410401435
 20
24.3192883873
 10
373.3603200277
 20
24.3326857842
 10
372.3562175785
 20
24.2214294898
 10
371.4049531252
 20
23.9862794975
 10
370.5130247684
 20
23.6288421201
 10
369.6865252835
 20
23.1515590174
 10
368.9311004998
 20
22.5576905168
 10
368.2519107346
 20
21.8512933424
 10
367.6535955428
 20
21.0371929033
 10
367.1402420237
 20
20.1209503308
 10
366.7153569024
 20
19.1088244909
 10
366.3818425752
 20
18.0077292293
 10
366.1419772831
 20
16.825186143
 10
365.9973995492
 20
15.5692732006
 10
365.9490969861
 20
14.2485695608
 10
365.9973995492
 20
12.8720969687
 10
366.1419772831
 20
11.4492581279
 10
366.3818425752
 20
9.9897724702
 10
366.7153569024
 20
8.5036097628
 10
367.1402420237
 20
7.0009220038
 10
367.6535955428
 20
5.4919740743
 10
368.2519107346
 20
3.9870736187
 10
368.9311004998
 20
2.4965006332
 10
369.6865252835
 20
1.0304372425
 10
370.5130247684
 20
-0.4011018537
 10
371.4049531252
 20
-1.7883377919
 10
372.3562175785
 20
-3.1217943439
 10
373.3603200277
 20
-4.3923626495
 10
374.410401435
 20
-5.5913634387
 10
375.4992886794
 20
-6.7106063205
 10
376.619543557
 20
-7.7424457309
 10
377.7635135911
 20
-8.6798331606
 10
378.9233843064
 20
-9.5163653029
 10
380.0912326098
 20
-10.2463277951
 10
381.2590809132
 20
-10.8647342532
 10
382.4189516285
 20
-11.3673603339
 10
383.5629216626
 20
-11.7507725916
 10
384.6831765403
 20
-12.0123519317
 10
385.7720637847
 20
-12.1503115021
 10
386.8221451919
 20
-12.163708899
 10
387.8262476411
 20
-12.0524526047
 10
388.7775120945
 20
-11.8173026123
 10
389.6694404512
 20
-11.4598652349
 10
390.4959399362
 20
-10.9825821322
 10
391.2513647199
 20
-10.3887136316
 10
391.9305544851
 20
-9.6823164573
 10
392.5288696769
 20
-8.8682160181
 10
393.042223196
 20
-7.9519734457
 10
393.4671083172
 20
-6.9398476057
 10
393.8006226444
 20
-5.8387523441
 10
394.0404879365
 20
-4.6562092579
 10
394.1850656704
 20
-3.4002963154
 10
394.2333682336
 20
-2.0795926756
  0
LWPOLYLINE
  5
FD
330
1F
100
AcDbEntity
  8
0
  6
Continuous
 62
     7
370
    25
100
AcDbPolyline
 90
       69
 70
   128
 43
0.0
 10
391.6170731432
 20
-0.5692376688
 10
391.5679059394
 20
0.6872023165
 10
391.4208238053
 20
1.989690044
 10
391.1770815939
 20
3.3271131476
 10
390.8387588277
 20
4.688061205
 10
390.4087419573
 20
6.0609230873
 10
389.890699735
 20
7.4339860208
 10
389.2890519143
 20
8.7955355169
 10
388.6089315424
 20
10.1339553151
 10
387.8561411665
 20
11.4378264899
 10
387.0371033286
 20
12.6960248719
 10
386.1588057708
 20
13.8978159563
 10
385.2287418181
 20
15.0329464852
 10
384.2548464483
 20
16.0917319253
 10
383.2454285933
 20
17.0651390924
 10
382.2091002503
 20
17.9448632199
 10
381.1547030073
 20
18.7233988115
 10
380.0912326098
 20
19.3941036763
 10
379.0277622124
 20
19.9512555968
 10
377.9733649694
 20
20.3901011491
 10
376.9370366264
 20
20.7068962579
 10
375.9276187714
 20
20.8989381389
 10
374.9537234016
 20
20.9645883586
 10
374.0236594489
 20
20.9032868123
 10
373.1453618911
 20
20.7155565033
 10
372.3263240532
 20
20.4029990803
 10
371.5735336772
 20
19.9682811732
 10
370.8934133053
 20
19.4151116418
 10
370.2917654847
 20
18.7482099335
 10
369.7737232624
 20
17.9732658185
 10
369.3437063919
 20
17.0968908468
 10
369.0053836257
 20
16.1265619407
 10
368.7616414143
 20
15.0705576042
 10
368.6145592803
 20
13.9378872941
 10
368.5653920765
 20
12.7382145539
 10
368.6145592803
 20
11.4817745687
 10
368.7616414143
 20
10.1792868412
 10
369.0053836257
 20
8.8418637376
 10
369.3437063919
 20
7.4809156801
 10
369.7737232624
 20
6.1080537979
 10
370.2917654847
 20
4.7349908644
 10
370.8934133053
 20
3.3734413683
 10
371.5735336772
 20
2.03502157
 10
372.3263240532
 20
0.7311503953
 10
373.1453618911
 20
-0.5270479867
 10
374.0236594489
 20
-1.7288390711
 10
374.9537234016
 20
-2.8639696
 10
375.9276187714
 20
-3.9227550401
 10
376.9370366264
 20
-4.8961622072
 10
377.9733649694
 20
-5.7758863347
 10
379.0277622124
 20
-6.5544219264
 10
380.0912326098
 20
-7.2251267911
 10
381.1547030073
 20
-7.7822787116
 10
382.2091002503
 20
-8.221124264
 10
383.2454285933
 20
-8.5379193727
 10
384.2548464483
 20
-8.7299612537
 10
385.2287418181
 20
-8.7956114734
 10
386.1588057708
 20
-8.7343099271
 10
387.0371033286
 20
-8.5465796181
 10
387.8561411665
 20
-8.2340221952
 10
388.6089315424
 20
-7.799304288
 10
389.2890519143
 20
-7.2461347566
 10
389.890699735
 20
-6.5792330483
 10
390.4087419573
 20
-5.8042889333
 10
390.8387588277
 20
-4.9279139617
 10
391.1770815939
 20
-3.9575850555
 10
391.4208238053
 20
-2.9015807191
 10
391.5679059394
 20
-1.7689104089
 10
391.6170731432
 20
-0.5692376688
  0
LWPOLYLINE
  5
FE
330
1F
100
AcDbEntity
  8
0
  6
Continuous
 62
     7
370
    25
100
AcDbPolyline
 90
       87
 70
   128
 43
0.0
 10
287.813797665
 20
6.2885904705
 10
287.7647522969
 20
7.8099721731
 10
287.6178778708
 20
9.2666100694
 10
287.3739580254
 20
10.6507323659
 10
287.0342941786
 20
11.9549541713
 10
286.6006985839
 20
13.172316898
 10
286.0754846615
 20
14.2963253891
 10
285.4614546549
 20
15.3209825731
 10
284.7618846798
 20
16.2408214604
 10
283.9805072447
 20
17.0509343126
 10
283.1214913364
 20
17.7469988272
 10
282.1894201764
 20
18.3253011987
 10
281.1892667676
 20
18.7827559339
 10
280.1263673611
 20
19.1169223138
 10
279.0063929853
 20
19.3260174161
 10
277.8353191879
 20
19.4089256281
 10
276.6193941545
 20
19.3652045984
 10
275.365105371
 20
19.1950875979
 10
274.079145011
 20
18.8994822741
 10
272.7683742292
 20
18.4799658096
 10
271.439786555
 20
17.938776506
 10
270.1004705785
 20
17.2788018425
 10
268.7575721298
 20
16.5035630695
 10
267.4182561533
 20
15.6171964213
 10
266.0896684791
 20
14.6244310474
 10
264.7788976973
 20
13.5305637806
 10
263.4929373373
 20
12.3414308762
 10
262.2386485538
 20
11.0633768725
 10
261.0227235203
 20
9.7032207409
 10
259.851649723
 20
8.2682195026
 10
258.7316753471
 20
6.7660295102
 10
257.6687759407
 20
5.2046655973
 10
256.6686225319
 20
3.5924583159
 10
255.7365513718
 20
1.9380094894
 10
254.8775354635
 20
0.2501463182
 10
254.0961580285
 20
-1.4621257176
 10
253.3965880534
 20
-3.1896709056
 10
252.7825580468
 20
-4.9232720449
 10
252.2573441244
 20
-6.6536796233
 10
251.8237485297
 20
-8.3716611676
 10
251.4840846828
 20
-10.0680505031
 10
251.2401648374
 20
-11.7337966586
 10
251.0932904114
 20
-13.3600121576
 10
251.0442450433
 20
-14.9380204368
 10
251.0932904114
 20
-16.4594021394
 10
251.2401648374
 20
-17.9160400357
 10
251.4840846829
 20
-19.3001623322
 10
251.8237485297
 20
-20.6043841376
 10
252.2573441244
 20
-21.8217468643
 10
252.7825580468
 20
-22.9457553554
 10
253.3965880534
 20
-23.9704125394
 10
254.0961580285
 20
-24.8902514267
 10
254.8775354635
 20
-25.7003642789
 10
255.7365513718
 20
-26.3964287935
 10
256.6686225319
 20
-26.974731165
 10
257.6687759407
 20
-27.4321859002
 10
258.7316753471
 20
-27.7663522801
 10
259.851649723
 20
-27.9754473824
 10
261.0227235203
 20
-28.0583555944
 10
262.2386485538
 20
-28.0146345647
 10
263.4929373373
 20
-27.8445175642
 10
264.7788976973
 20
-27.5489122404
 10
266.0896684791
 20
-27.1293957759
 10
267.4182561533
 20
-26.5882064723
 10
268.7575721298
 20
-25.9282318088
 10
270.1004705785
 20
-25.1529930358
 10
271.439786555
 20
-24.2666263876
 10
272.7683742292
 20
-23.2738610137
 10
274.079145011
 20
-22.1799937469
 10
275.365105371
 20
-20.9908608424
 10
276.6193941545
 20
-19.7128068388
 10
277.8353191879
 20
-18.3526507072
 10
279.0063929853
 20
-16.9176494689
 10
280.1263673611
 20
-15.4154594765
 10
281.1892667676
 20
-13.8540955636
 10
282.1894201764
 20
-12.2418882822
 10
283.1214913364
 20
-10.5874394557
 10
283.9805072447
 20
-8.8995762845
 10
284.7618846798
 20
-7.1873042487
 10
285.4614546549
 20
-5.4597590607
 10
286.0754846615
 20
-3.7261579214
 10
286.6006985839
 20
-1.995750343
 10
287.0342941786
 20
-0.2777687987
 10
287.3739580254
 20
1.4186205368
 10
287.6178778708
 20
3.0843666923
 10
287.7647522969
 20
4.7105821913
 10
287.813797665
 20
6.2885904705
  0
LWPOLYLINE
  5
FF
330
1F
100
AcDbEntity
  8
0
  6
Continuous
 62
     7
370
    25
100
AcDbPolyline
 90
       12
 70
   128
 43
0.0
 10
380.4447860004
 20
-47.1861408538
 10
380.3957406323
 20
-45.6647591513
 10
380.2488662063
 20
-44.208121255
 10
380.0049463609
 20
-42.8239989585
 10
379.665282514
 20
-41.5197771531
 10
379.2316869193
 20
-40.3024144264
 10
378.7064729969
 20
-39.1784059352
 10
378.0924429903
 20
-38.1537487513
 10
377.3928730152
 20
-37.233909864
 10
376.6114955802
 20
-36.4237970118
 10
375.7524796719
 20
-35.7277324972
 10
375.0589532138
 20
-35.2821758856
  0
LWPOLYLINE
  5
100
330
1F
100
AcDbEntity
  8
0
  6
Continuous
 62
     7
370
    25
100
AcDbPolyline
 90
       34
 70
   128
 43
0.0
 10
349.0610661653
 20
-80.3167167294
 10
349.2996108673
 20
-80.4494624894
 10
350.2997642761
 20
-80.9069172246
 10
351.3626636826
 20
-81.2410836045
 10
352.4826380584
 20
-81.4501787068
 10
353.6537118558
 20
-81.5330869187
 10
354.8696368892
 20
-81.4893658891
 10
356.1239256727
 20
-81.3192488885
 10
357.4098860328
 20
-81.0236435648
 10
358.7206568145
 20
-80.6041271002
 10
360.0492444887
 20
-80.0629377967
 10
361.3885604652
 20
-79.4029631332
 10
362.7314589139
 20
-78.6277243602
 10
364.0707748904
 20
-77.741357712
 10
365.3993625646
 20
-76.7485923381
 10
366.7101333464
 20
-75.6547250713
 10
367.9960937065
 20
-74.4655921668
 10
369.2503824899
 20
-73.1875381632
 10
370.4663075234
 20
-71.8273820316
 10
371.6373813207
 20
-70.3923807933
 10
372.7573556966
 20
-68.8901908009
 10
373.820255103
 20
-67.328826888
 10
374.8204085118
 20
-65.7166196066
 10
375.7524796719
 20
-64.0621707801
 10
376.6114955802
 20
-62.3743076088
 10
377.3928730152
 20
-60.6620355731
 10
378.0924429903
 20
-58.9344903851
 10
378.7064729969
 20
-57.2008892458
 10
379.2316869193
 20
-55.4704816674
 10
379.665282514
 20
-53.752500123
 10
380.0049463609
 20
-52.0561107876
 10
380.2488662063
 20
-50.3903646321
 10
380.3957406323
 20
-48.7641491331
 10
380.4447860004
 20
-47.1861408538
  0
LWPOLYLINE
  5
101
330
1F
100
AcDbEntity
  8
0
  6
Continuous
 62
     7
370
    25
100
AcDbPolyline
 90
       77
 70
   128
 43
0.0
 10
283.5711569779
 20
3.8393661351
 10
283.5228544147
 20
5.1600697749
 10
283.3782766809
 20
6.4159827173
 10
283.1384113887
 20
7.5985258035
 10
282.8048970615
 20
8.6996210652
 10
282.3800119403
 20
9.7117469051
 10
281.8666584212
 20
10.6279894776
 10
281.2683432294
 20
11.4420899167
 10
280.5891534642
 20
12.148487091
 10
279.8337286805
 20
12.7423555916
 10
279.0072291955
 20
13.2196386944
 10
278.1153008388
 20
13.5770760718
 10
277.1640363854
 20
13.8122260641
 10
276.1599339362
 20
13.9234823585
 10
275.109852529
 20
13.9100849615
 10
274.0209652846
 20
13.7721253912
 10
272.9007104069
 20
13.5105460511
 10
271.7567403728
 20
13.1271337934
 10
270.5968696575
 20
12.6245077126
 10
269.4290213541
 20
12.0061012546
 10
268.2611730507
 20
11.2761387624
 10
267.1013023354
 20
10.43960662
 10
265.9573323013
 20
9.5022191903
 10
264.8370774237
 20
8.4703797799
 10
263.7481901793
 20
7.3511368982
 10
262.698108772
 20
6.1521361089
 10
261.6940063228
 20
4.8815678034
 10
260.7427418695
 20
3.5481112513
 10
259.8508135127
 20
2.1608753131
 10
259.0243140278
 20
0.7293362169
 10
258.2688892441
 20
-0.7367271737
 10
257.5896994789
 20
-2.2273001593
 10
256.9913842871
 20
-3.7322006148
 10
256.478030768
 20
-5.2411485443
 10
256.0531456467
 20
-6.7438363033
 10
255.7196313195
 20
-8.2299990108
 10
255.4797660274
 20
-9.6894846684
 10
255.3351882935
 20
-11.1123235093
 10
255.2868857304
 20
-12.4887961014
 10
255.3351882935
 20
-13.8094997412
 10
255.4797660274
 20
-15.0654126836
 10
255.7196313195
 20
-16.2479557698
 10
256.0531456467
 20
-17.3490510315
 10
256.478030768
 20
-18.3611768714
 10
256.9913842871
 20
-19.2774194439
 10
257.5896994789
 20
-20.091519883
 10
258.2688892441
 20
-20.7979170573
 10
259.0243140278
 20
-21.3917855579
 10
259.8508135127
 20
-21.8690686607
 10
260.7427418695
 20
-22.2265060381
 10
261.6940063228
 20
-22.4616560304
 10
262.698108772
 20
-22.5729123248
 10
263.7481901793
 20
-22.5595149278
 10
264.8370774237
 20
-22.4215553575
 10
265.9573323013
 20
-22.1599760174
 10
267.1013023355
 20
-21.7765637597
 10
268.2611730507
 20
-21.2739376789
 10
269.4290213541
 20
-20.6555312209
 10
270.5968696575
 20
-19.9255687287
 10
271.7567403728
 20
-19.0890365863
 10
272.9007104069
 20
-18.1516491566
 10
274.0209652846
 20
-17.1198097462
 10
275.109852529
 20
-16.0005668645
 10
276.1599339362
 20
-14.8015660752
 10
277.1640363854
 20
-13.5309977697
 10
278.1153008388
 20
-12.1975412176
 10
279.0072291955
 20
-10.8103052794
 10
279.8337286805
 20
-9.3787661832
 10
280.5891534642
 20
-7.9127027926
 10
281.2683432294
 20
-6.422129807
 10
281.8666584212
 20
-4.9172293515
 10
282.3800119403
 20
-3.408281422
 10
282.8048970615
 20
-1.905593663
 10
283.1384113887
 20
-0.4194309555
 10
283.3782766809
 20
1.0400547021
 10
283.5228544147
 20
2.462893543
 10
283.5711569779
 20
3.8393661351
  0
ARC
  5
102
330
1F
100
AcDbEntity
  8
0
  6
Continuous
 62
     7
370
    25
100
AcDbCircle
 10
271.5705504214
 20
46.7818340512
 30
0.0
 40
3.500841348480769
100
AcDbArc
 50
114.1882797198
 51
174.4915793226
  0
LWPOLYLINE
  5
103
330
1F
100
AcDbEntity
  8
0
  6
Continuous
 62
     7
370
    25
100
AcDbPolyline
 90
       18
 70
   128
 43
0.0
 10
282.0858756036
 20
47.1178869659
 10
282.0336986651
 20
47.6103626869
 10
281.8473563876
 20
48.1637783466
 10
281.5294095778
 20
48.6968369203
 10
281.0860467085
 20
49.1991630292
 10
280.5258973338
 20
49.6609794669
 10
279.8598641241
 20
50.0732975018
 10
279.1009106581
 20
50.4280918324
 10
278.2638091018
 20
50.7184567905
 10
277.3648526848
 20
50.9387407526
 10
276.4215385713
 20
51.0846561419
 10
275.4522272973
 20
51.1533628813
 10
274.4757854044
 20
51.1435236723
 10
273.5112182232
 20
51.0553300239
 10
272.5772999568
 20
50.8904985251
 10
271.6922082619
 20
50.6522374337
 10
270.8731704416
 20
50.3451842306
 10
270.1361281353
 20
49.9753153573
  0
ENDSEC
  0
SECTION
  2
OBJECTS
  0
DICTIONARY
  5
C
330
0
100
AcDbDictionary
281
     1
  3
ACAD_GROUP
350
D
  3
ACAD_LAYOUT
350
1A
  3
ACAD_MLINESTYLE
350
17
  3
ACAD_PLOTSETTINGS
350
19
  3
ACAD_PLOTSTYLENAME
350
E
  3
ACAD_SCALELIST
350
47
  3
DWGPROPS
350
104
  0
DICTIONARY
  5
D
102
{ACAD_REACTORS
330
C
102
}
330
C
100
AcDbDictionary
281
     1
  0
DICTIONARY
  5
1A
102
{ACAD_REACTORS
330
C
102
}
330
C
100
AcDbDictionary
281
     1
  3
Layout1
350
1E
  3
Layout2
350
26
  3
Model
350
22
  0
DICTIONARY
  5
17
102
{ACAD_REACTORS
330
C
102
}
330
C
100
AcDbDictionary
281
     1
  3
Standard
350
18
  0
DICTIONARY
  5
19
102
{ACAD_REACTORS
330
C
102
}
330
C
100
AcDbDictionary
281
     1
  0
ACDBDICTIONARYWDFLT
  5
E
102
{ACAD_REACTORS
330
C
102
}
330
C
100
AcDbDictionary
281
     1
  3
Normal
350
F
100
AcDbDictionaryWithDefault
340
F
  0
DICTIONARY
  5
47
102
{ACAD_REACTORS
330
C
102
}
330
C
100
AcDbDictionary
281
     1
  3
A0
350
48
  3
A1
350
49
  3
A2
350
4A
  3
A3
350
4B
  3
A4
350
4C
  3
A5
350
4D
  3
A6
350
4E
  3
A7
350
4F
  3
A8
350
50
  3
A9
350
51
  3
B0
350
52
  3
B1
350
53
  3
B2
350
54
  3
B3
350
55
  3
B4
350
56
  3
B5
350
57
  3
B6
350
58
  3
B7
350
59
  3
B8
350
5A
  3
B9
350
5B
  3
C0
350
5C
  3
C1
350
5D
  3
C2
350
5E
  3
C3
350
5F
  3
C4
350
60
  3
C5
350
61
  3
C6
350
62
  3
C7
350
63
  3
C8
350
64
  3
C9
350
65
  3
D0
350
66
  3
D1
350
67
  3
D2
350
68
  0
XRECORD
  5
104
102
{ACAD_REACTORS
330
C
102
}
330
C
100
AcDbXrecord
280
     1
  1
DWGPROPS COOKIE
  2

  3

  4

  6

  7

  8
b.kav
  9

300
=
301
=
302
=
303
=
304
=
305
=
306
=
307
=
308
=
309
=
 40
0.0
 41
2459741.482869896
 42
2459741.482870069
  1

 90
        0
  0
LAYOUT
  5
1E
102
{ACAD_REACTORS
330
1A
102
}
330
1A
100
AcDbPlotSettings
  1

  2
none_device
  4

  6

 40
0.0
 41
0.0
 42
0.0
 43
0.0
 44
0.0
 45
0.0
 46
0.0
 47
0.0
 48
0.0
 49
0.0
140
0.0
141
0.0
142
1.0
143
1.0
 70
   688
 72
     1
 73
     0
 74
     5
  7

 75
    16
147
1.0
148
0.0
149
0.0
100
AcDbLayout
  1
Layout1
 70
     1
 71
     1
 10
0.0
 20
0.0
 11
420.0
 21
297.0
 12
0.0
 22
0.0
 32
0.0
 14
1.0000000000E+20
 24
1.0000000000E+20
 34
1.0000000000E+20
 15
-1.0000000000E+20
 25
-1.0000000000E+20
 35
-1.0000000000E+20
146
0.0
 13
0.0
 23
0.0
 33
0.0
 16
1.0
 26
0.0
 36
0.0
 17
0.0
 27
1.0
 37
0.0
 76
     0
330
1B
  0
LAYOUT
  5
26
102
{ACAD_REACTORS
330
1A
102
}
330
1A
100
AcDbPlotSettings
  1

  2
none_device
  4

  6

 40
0.0
 41
0.0
 42
0.0
 43
0.0
 44
0.0
 45
0.0
 46
0.0
 47
0.0
 48
0.0
 49
0.0
140
0.0
141
0.0
142
1.0
143
1.0
 70
   688
 72
     1
 73
     0
 74
     5
  7

 75
    16
147
1.0
148
0.0
149
0.0
100
AcDbLayout
  1
Layout2
 70
     1
 71
     2
 10
0.0
 20
0.0
 11
0.0
 21
0.0
 12
0.0
 22
0.0
 32
0.0
 14
0.0
 24
0.0
 34
0.0
 15
0.0
 25
0.0
 35
0.0
146
0.0
 13
0.0
 23
0.0
 33
0.0
 16
1.0
 26
0.0
 36
0.0
 17
0.0
 27
1.0
 37
0.0
 76
     0
330
23
  0
LAYOUT
  5
22
102
{ACAD_REACTORS
330
1A
102
}
330
1A
100
AcDbPlotSettings
  1

  2
none_device
  4
Letter_(8.50_x_11.00_Inches)
  6

 40
6.35
 41
6.35
 42
6.35000508
 43
6.35000508
 44
215.9
 45
279.4
 46
0.0
 47
0.0
 48
0.0
 49
0.0
140
0.0
141
0.0
142
1.0
143
1.0
 70
  1712
 72
     1
 73
     0
 74
     0
  7

 75
     0
147
1.0
148
0.0
149
0.0
100
AcDbLayout
  1
Model
 70
     1
 71
     0
 10
0.0
 20
0.0
 11
279.4
 21
215.9
 12
0.0
 22
0.0
 32
0.0
 14
0.0
 24
0.0
 34
0.0
 15
279.4
 25
215.9
 35
0.0
146
0.0
 13
0.0
 23
0.0
 33
0.0
 16
1.0
 26
0.0
 36
0.0
 17
0.0
 27
1.0
 37
0.0
 76
     0
330
1F
331
29
  0
MLINESTYLE
  5
18
102
{ACAD_REACTORS
330
17
102
}
330
17
100
AcDbMlineStyle
  2
Standard
 70
     0
  3

 62
   256
 51
90.0
 52
90.0
 71
     2
 49
0.5
 62
   256
  6
BYLAYER
 49
-0.5
 62
   256
  6
BYLAYER
  0
ACDBPLACEHOLDER
  5
F
102
{ACAD_REACTORS
330
E
102
}
330
E
  0
SCALE
  5
48
102
{ACAD_REACTORS
330
47
102
}
330
47
100
AcDbScale
 70
     0
300
1:1
140
1.0
141
1.0
290
     1
  0
SCALE
  5
49
102
{ACAD_REACTORS
330
47
102
}
330
47
100
AcDbScale
 70
     0
300
1:2
140
1.0
141
2.0
290
     0
  0
SCALE
  5
4A
102
{ACAD_REACTORS
330
47
102
}
330
47
100
AcDbScale
 70
     0
300
1:4
140
1.0
141
4.0
290
     0
  0
SCALE
  5
4B
102
{ACAD_REACTORS
330
47
102
}
330
47
100
AcDbScale
 70
     0
300
1:5
140
1.0
141
5.0
290
     0
  0
SCALE
  5
4C
102
{ACAD_REACTORS
330
47
102
}
330
47
100
AcDbScale
 70
     0
300
1:8
140
1.0
141
8.0
290
     0
  0
SCALE
  5
4D
102
{ACAD_REACTORS
330
47
102
}
330
47
100
AcDbScale
 70
     0
300
1:10
140
1.0
141
10.0
290
     0
  0
SCALE
  5
4E
102
{ACAD_REACTORS
330
47
102
}
330
47
100
AcDbScale
 70
     0
300
1:16
140
1.0
141
16.0
290
     0
  0
SCALE
  5
4F
102
{ACAD_REACTORS
330
47
102
}
330
47
100
AcDbScale
 70
     0
300
1:20
140
1.0
141
20.0
290
     0
  0
SCALE
  5
50
102
{ACAD_REACTORS
330
47
102
}
330
47
100
AcDbScale
 70
     0
300
1:30
140
1.0
141
30.0
290
     0
  0
SCALE
  5
51
102
{ACAD_REACTORS
330
47
102
}
330
47
100
AcDbScale
 70
     0
300
1:40
140
1.0
141
40.0
290
     0
  0
SCALE
  5
52
102
{ACAD_REACTORS
330
47
102
}
330
47
100
AcDbScale
 70
     0
300
1:50
140
1.0
141
50.0
290
     0
  0
SCALE
  5
53
102
{ACAD_REACTORS
330
47
102
}
330
47
100
AcDbScale
 70
     0
300
1:100
140
1.0
141
100.0
290
     0
  0
SCALE
  5
54
102
{ACAD_REACTORS
330
47
102
}
330
47
100
AcDbScale
 70
     0
300
2:1
140
2.0
141
1.0
290
     0
  0
SCALE
  5
55
102
{ACAD_REACTORS
330
47
102
}
330
47
100
AcDbScale
 70
     0
300
4:1
140
4.0
141
1.0
290
     0
  0
SCALE
  5
56
102
{ACAD_REACTORS
330
47
102
}
330
47
100
AcDbScale
 70
     0
300
8:1
140
8.0
141
1.0
290
     0
  0
SCALE
  5
57
102
{ACAD_REACTORS
330
47
102
}
330
47
100
AcDbScale
 70
     0
300
10:1
140
10.0
141
1.0
290
     0
  0
SCALE
  5
58
102
{ACAD_REACTORS
330
47
102
}
330
47
100
AcDbScale
 70
     0
300
100:1
140
100.0
141
1.0
290
     0
  0
SCALE
  5
59
102
{ACAD_REACTORS
330
47
102
}
330
47
100
AcDbScale
 70
     0
300
1/128" = 1'-0"
140
0.0078125
141
12.0
290
     0
  0
SCALE
  5
5A
102
{ACAD_REACTORS
330
47
102
}
330
47
100
AcDbScale
 70
     0
300
1/64" = 1'-0"
140
0.015625
141
12.0
290
     0
  0
SCALE
  5
5B
102
{ACAD_REACTORS
330
47
102
}
330
47
100
AcDbScale
 70
     0
300
1/32" = 1'-0"
140
0.03125
141
12.0
290
     0
  0
SCALE
  5
5C
102
{ACAD_REACTORS
330
47
102
}
330
47
100
AcDbScale
 70
     0
300
1/16" = 1'-0"
140
0.0625
141
12.0
290
     0
  0
SCALE
  5
5D
102
{ACAD_REACTORS
330
47
102
}
330
47
100
AcDbScale
 70
     0
300
3/32" = 1'-0"
140
0.09375
141
12.0
290
     0
  0
SCALE
  5
5E
102
{ACAD_REACTORS
330
47
102
}
330
47
100
AcDbScale
 70
     0
300
1/8" = 1'-0"
140
0.125
141
12.0
290
     0
  0
SCALE
  5
5F
102
{ACAD_REACTORS
330
47
102
}
330
47
100
AcDbScale
 70
     0
300
3/16" = 1'-0"
140
0.1875
141
12.0
290
     0
  0
SCALE
  5
60
102
{ACAD_REACTORS
330
47
102
}
330
47
100
AcDbScale
 70
     0
300
1/4" = 1'-0"
140
0.25
141
12.0
290
     0
  0
SCALE
  5
61
102
{ACAD_REACTORS
330
47
102
}
330
47
100
AcDbScale
 70
     0
300
3/8" = 1'-0"
140
0.375
141
12.0
290
     0
  0
SCALE
  5
62
102
{ACAD_REACTORS
330
47
102
}
330
47
100
AcDbScale
 70
     0
300
1/2" = 1'-0"
140
0.5
141
12.0
290
     0
  0
SCALE
  5
63
102
{ACAD_REACTORS
330
47
102
}
330
47
100
AcDbScale
 70
     0
300
3/4" = 1'-0"
140
0.75
141
12.0
290
     0
  0
SCALE
  5
64
102
{ACAD_REACTORS
330
47
102
}
330
47
100
AcDbScale
 70
     0
300
1" = 1'-0"
140
1.0
141
12.0
290
     0
  0
SCALE
  5
65
102
{ACAD_REACTORS
330
47
102
}
330
47
100
AcDbScale
 70
     0
300
1-1/2" = 1'-0"
140
1.5
141
12.0
290
     0
  0
SCALE
  5
66
102
{ACAD_REACTORS
330
47
102
}
330
47
100
AcDbScale
 70
     0
300
3" = 1'-0"
140
3.0
141
12.0
290
     0
  0
SCALE
  5
67
102
{ACAD_REACTORS
330
47
102
}
330
47
100
AcDbScale
 70
     0
300
6" = 1'-0"
140
6.0
141
12.0
290
     0
  0
SCALE
  5
68
102
{ACAD_REACTORS
330
47
102
}
330
47
100
AcDbScale
 70
     0
300
1'-0" = 1'-0"
140
12.0
141
12.0
290
     0
  0
ENDSEC
  0
EOF
